T. See http://www.olga.net/faq/ for more information. #
Date: Sun, 16 Jan 2000 20:22:46 -0800 (PST)
From: Ted Bundy
Subject: d/danzig/unspeakable.crd
" Unspeakable " from the Album Danzig 6:66 Satans Child
Anything that i missed please lemme know
Phillip Patch
[email protected]
Timing I have NO idea what it is...
Listen to the song and you'll know
Tuning is 1 1/2 steps down
Pretty simple riffs and it goes like this
Intro in mono with delay play 2x (figure A)
E-----------------------------------
B-----------------------------------
G-----------------------------------
D-----2-----2----4----5-5-----------
A-----2-----2----4----5-5-----------
E-----0-----0----2----3-3-----------
Main verse play 8x (figure B) effect seems to be stereo w/chorus
E--------------------------------------
B--------------------------------------
G--------------------------------------
D---2-----2----4----5-5----------------
A---2-----2----4----5-5----------------
E---0-----0----2----3-3----------------
Chorus play 8x (figure C)
E---------------------------------------------
B---------------------------------------------
G---------------------------------------------
D--2--------------7-----------5-----------5---
A--2--------------7-----------5-----------5---
E--0-0-0-0-0-0-0--5-----------3-----------3---
Outro 8x until fade out then 2x on the fade out (figure D)
E-----------------------------------------------------------------
B-----------------------------------------------------------------
G-----------------------------------------------------------------
D--2--2-2-2-2-2-2-7--7-7-7-7-7-7-7-5--5-5-5-5-5-5--5--5-5-5-5-5-5-
A--2--2-2-2-2-2-2-7--7-7-7-7-7-7-7-5--5-5-5-5-5-5--5--5-5-5-5-5-5-
E--0--0-0-0-0-0-0-5--5-5-5-5-5-5-5-3--3-3-3-3-3-3--3--3-3-3-3-3-3-
The sequence to this song is
Figure A
Figure B
Bass & drums
Figure B
Figure C
Figure B
Bass & drums
Figure B
Figure C
Figure D





Ваше мнение



Капча