TWIST OF CAIN
=============

Hey people hope you like this tabs. They are the best, if you don't think so
email me at [email protected]

intro:
E|-----------------|
B|-----------------|
G|-----------------|
D|-----------------|
A|-6^--------------|
E|-----------------|

main riff / chorus riff:
E|-----------------|-----------------|-----------------|-----------------|
B|-----------------|-----------------|-----------------|-----------------|
G|-----------------|-----------------|-----------------|-8--8--8---------|
D|-----------------|-AH--------------|-----------------|-8--8--8---------|
A|-7---0-6-0-3-0-0-|-7---0-6-0-3-0-0-|-7-7-0-6-0-3-0-0-|-6--6--6-----6^--|
E+-----------------|-----------------|-----------------|-6--6--6---------+
| |
| |
G+-----------------|-----------------|-----------------|-----------------+
D|-----------------|-----------------|-----------------|-----------------|
A|-0-0-0-0-0-0-0-0-|-0-0-0-0-0-0-0-0-|-0-0-0-0-0-0-0-0-|-6--6--6-----6---|
E|-----------------|-----------------|-----------------|-----------------|

verse:
e|--------------------------|--------------------------|
B|--------------------------|--------------------------|
G|--------------------------|--------------------------|
D|--------------------------|-------------------15----|
A|--7--7--7-10-10-10-10-10--|--7--7--7-10-10-10-15----|
E+--5--5--5--8--8--8--8--8--|--5--5--5--8--8--8-15----+
| PM----------------------------------------> |
| |
G+--------------------------|--------------------------+
D|--------------------------|--------------------------|
A|--7--7--7-10-10-10-10-10--|--7--7--7-10-10-10--------|
E|--5--5--5--8--8--8--8--8--|--5--5--5--8--8--8-15----|

verse end:
e|--------------------------|--------------------------|
B|--------------------------|--------------------------|
G|--------------------------|--8----8----8-------------|
D|--------------------------|--8----8----8-------------|
A|--7--7--7-10-10-10-10-10--|--6----6----6-------6^----|
E+--5--5--5--8--8--8--8--8--|--6----6----6-------------+
| PM-------------------> |
| |
G+--------------------------|--------------------------+
D|--------------------------|--------------------------|
A|--------------------------|--6----6----6-------6-----|
E|--5--5--5--8--8--8--8--8--|--------------------------|

bridge:
E|-----------------|-----------------|-----------------|-----------------|
B|-----------------|-----------------|-----------------|-----------------|
G|-2---------------|-----------------|-8---------------|-----------------|
D|-2---------------|-----------------|-8---------------|-5-5-5---7--7--7-|
A|-0---------------|-3^--0-------0---|-6---------------|-3-3-3-0-5--5--5-|
E+-----------------|---------3^------|-6---------------|-----------------+
| |
| |
G+-----------------|-----------------|-----------------|-----------------+
D|-----------------|-----------------|-----------------|-----------------|
A|-0---------------|-3^--0-------0---|-6---------------|-3-3-3-0-5--5--5-|
E|-----------------|---------3^------|-----------------|-----------------|

-songflow-
intro
main riff (4x)
verse (3x)
verse end
chorus (2x)
verse (3x)
verse end
chorus (2x)
bridge (4x)
chorus (2x)
verse (3x)
verse end
chorus (2x)
bridge (6x)
A (4x)





Ваше мнение



Капча