D A N Z I G
S O U L O N F I R E
DANZIG (1988)
Intro (piano arranged for guitar):
-----------------------------------------------------|
-----------------------------------------------------|
--4-----4-----4----7----2----7----4---------2----7---|
--------------------------------------2--------------|
--2-----2-----2----5----0----5----2---------0----5---|
--------------------------------------0--------------|
Verse Riff
--------------------------------------------------------------|
--------------------------------------------------------------|
--------------------------------------------------------------|
-4---------------7---------------2---------------7------7--7--|
-2--2-2-2-2-2-2--5--5-5-5-5-5-5--0--0-0-0-0-0-0--5--5-5-5--5--|
--------------------------------------------------------------|
----------------------------------------------------------------|
----------------------------------------------------------------|
----------------------------------------------------------------|
-4-------------------------------2---------------7------7--7----|
-2--2-2-2-2-2-2---2--------------0--0-0-0-0-0-0--5--5-5-5--5----|
------------------0---------------------------------------------|
Chorus
----------------------------------|
----------------------------------|
----------------------------------|
-4-4--7-7--9-9----------------7---|
-2-2--5-5--7-7-------5--5-5---5---|
---------------------3--3-3-------|
Bridge
---------------------------|
---------------------------|
---------------------------|
-4------9-------------7----|
-2------7-----7-------5----|
--------------5------------|
Solo 1
-------------|-------------|-------------|-------------------|
-------------|-------------|-------------|-------------------|
-------------|-------------|-------------|-------------------|
-----x15-----|--x8---------|-----x7------|-------------7-----|
--4--4-4--4--|--5--5-5--5--|--4--4-4--4--|----5--------5-----|
--2--2-2--2--|--3--3-3--3--|--2--2-2--2--|----3--------------|
Solo 2 Outro
----------|-----------------------------------------------|
---x16----|-----------------------------------------------|
----------|-----------------------------------------------|
-2--------|--------------7-------------999999999999---9--|
-2--------|--5-----------5-------------777777777777---7--|
-0-000000-|--3--------------------------------------------|
Lyrics:
Angels fall to earth, world heats down, cool,
now your heart is cold, waiting on the summer, of my soul, of my soul, of my soul, of my soul
Devils girl you must burn, burn at the touch of an autum?s breath
Burn that heart of cold, simmering in the samhain of my soul
Gotta wait on the samhain of my soul, yeah
Gonna bring your world, down in fire
Angels fall to earth, world heats down, oooh
now your heart is cold, waiting on the summer, of my soul
Gotta wait on the samhain of my soul, yeah
Gonna bring your world, down in fire
Gotta wait on the samhain of my soul, yeah
Gonna bring your world, down in fire
Come wrap my love in your house of ice, melt you down more than once or twice
Make you shake till your world align, see your body tremble, with your blood on fire
Cuase the season of the flame you must pray and learn, change all the things that you ever seen
Change all vision, kill all endings
Gotta wait on the samhain of my soul, yeah
Gonna bring your world, down in fire
Gotta wait on the samhain of my soul, yeah
Gonna bring your world, down in fire
Gotta wait on the samhain of my soul, yeah
Gonna bring your world, down in fire
Gotta wait on the samhain of my soul, yeah
Gonna bring your world, down in fire
[email protected]





Ваше мнение



Капча