-##
From: [email protected] (michael thomas fassbender)
Subject: TAB: Danzig "Let it be Captured"
This is sort of a trial run for me, as I haven't
Posted a song before, so I'm sending in something fairly
Short and simple. This is how I've interpreted the song
"Let It Be Captured" from Danzig's 4th Album.
QuickTab is a Macintosh Tab Editor in the final
Stages of beta testing. For more information, please
Contact Keith MacDonald ([email protected]).
~Title: Danzig -- Let It Be Captured
QuickTab
---------------------------------------------------------------
Legend:
-------
X mute
B bend
R release
H hammer on
P pull off
~ vibrato
/ slide up
\ slide down
^^ tremolo

|--------------------------------|--------------------------------|
|--------------------------------|--------------------------------|
|--------2-------------2---------|---------2--------------2-------|
|-----0-----0------0-------0-----|-----0-------0-------0------0---|
|--5------------5----------------|--1--------------1--------------|
|--------------------------------|--------------------------------|

|--------------------------------|--------------------------------|
|--------------------------------|--------------------------------|
|--------2--------------2--------|---------2---------------2------|
|-----0-----0--------0------0----|-----0-------0--------0------0--|
|--------------------------------|--------------------------------|
|-1-------------1----------------|--0---------------3-------------|
This seems pretty much to be the whole song, from start to
Finish. Start out fairly slow, with a more or less clean
Sound, and as the song progresses, pick up the volume and
Some tempo, and then kick in the distortion.
Michael Fassbender





Ваше мнение



Капча