LEFT HAND BLACK
===============
transcription: D.EVIL, Ryq
intro: bridge:
Eb|----------------------| |---------------------|
Bb|----------------------| |---------------------|
Gb|----------------------| |---------------------|
Db|-2--------------5--5--| |-2----5---2------ah--|
Ab|-2----7--5------5--5--| |-2----5---2-------7--|
Eb|-0----------3---3--3--| |-0----3---0--00000---|
pm-->
bass verse riff:
Gb|--------------------------|
Db|-----------------------5--|
Ab|-7---7-7---7-7---7-7-7----|
Eb|--------------------------|
fill: (variations of this are used during the verses)
Eb|----------------------------------------|
Bb|----------------------------------------|
Gb|-9---7--------7-------------------------|
Db|-----------9------9---7---9-------------|
Ab|----------------------------------7-----|
Eb|----------------------------------------|
Notes: The 'G' power chords transcribed in the intro riff are used
only in the beginning. Other calls to the intro riff do not
use the G chord.
-songflow-
intro (8x) w/'G' power chord
bridge (4x)
bass riff (12x) w/fills
G
D E (4x)
D
intro (4x)
bass riff (6x) w/fills; rhythm guitar plays palm-muted low E
G
D E (4x)
D
intro (4x)
bridge (4x)
bass riff (4x)
bass riff (4x) w/fills; rhythm guitar plays palm-muted low E
G
D E (12x)
D
E





Ваше мнение



Капча