-##
IT'S COMING DOWN
By Danzig
Tabbed by Tom Mallon

Tune down 1/2 step

RIFF 1 (Intro)
E -----------------------------------------------------------------------
B -----------------------------------------------------------------------
G -----------------3---2-------------------------------------------------
D --2----5----2----3---2-------------------------------------------------
A --2----5----2----1---0-------------------------------------------------
E --0----3----0----------------------------------------------------------

RIFF 2 (Verse)
PM-------------- PM---------
E -----------------------------------------------------------------------
B -----------------------------------------------------------------------
G -----------------3---2------------------3--2---------------------------
D --2----5----2----3---2---2---2----5--2--3--2---------------------------
A --2----5----2----1---0---2---2----5--2--1--0---------------------------
E --0----3----0------------0---0----3--0---------------------------------

RIFF 3 (Chorus)

E -----------------------------------------------------------------------
B -----------------------------------------------------------------------
G ---------------------/--8----------------------------------------------
D --2-----8--\----2----/--8----------------------------------------------
A --2-----8--\----2----/--6----------------------------------------------
E --0-----6--\----0------------------------------------------------------





Ваше мнение



Капча