Song: I Luciferi
Artist: Danzig
Album:Danzig 777
intro/outro:
C |-------------------------|-------------------------|
G |-------------------------|-------------------------|
Eb|-------------------------|-------------------------|
Bb|-------------------------|-------------------------|
F |/10--9-10-9--10-------/5-|-----4--5--4--5--8-------|
C |-------------------------|-------------------------|
verse riff:
C |-------------------------|-------------------------|
G |-------------------------|-------------------------|
Eb|-------------------------|-------------------------|
Bb|-------------------------|-------------------------|
F |--2-----2--2--2-----2--2-|--2----------------------|
C +--0-----0--0--0-----0--0-|--0-----6^---------------+
| pm ------------------> pm |
| |
Eb+-------------------------|-------------------------+
Bb|-------------------------|-------------------------|
F |-------------------------|-------------------------|
C |--0-----0--0--0-----0--0-|--0-----0--0--0-----0--0-|
chorus:
C |-------------------------|-------------------------|
G |-------------------------|-------------------------|
Eb|--9----------------------|-------10----------12----|
Bb|--9----------------------|-------10----------12----|
F |--7----------------------|--------8----------10----|
C +--------------0-----0--0-|--0----------------------+
| |
| |
Eb+-------------------------|-------------------------+
Bb|-------------------------|-------------------------|
F |-------------------------|-------------------------|
C |--0-----0--0--0-----0--0-|--0-----0--0--0-----0--0-|
-songflow-
intro (4x)
verse (4x)
verse (8x)
chorus (4x)
verse (8x)
chorus (8x)
verse (4x) w/solo
verse (8x)
chorus (16x) (on last repeat, end on F chord)
fade out on intro





Ваше мнение



Капча