-##
From: [email protected] (Craig M Schmidt)
Some people have asked for some Danzig recently, and I think it's a
Tragedy that this song hasn't been available. It's easy, but it's cool...
DANZIG-HER BLACK WINGS
From Danzig II-Lucifuge
INTRO:
PM..............................
|----------------------------------|
|----------------------------------|
|----------------------------------|
|----------------------------------|
|----------------------------------|
|--2-2-0-1-2-2-0-1-2-2-0-1-2-2-0-1-|
PM............. PM.............. vib AH sl
Enter Oblivion...
|-----------------------------------------------------------------|
|-----------------------------------------------------------------|
|-------------------4--------2------------------------------------|
|-------------------4--------2------------------------------------|
|-------------------2--------0-------------------------------3\\\-|
|-2-2-0-1-2-2-0-1---2--------0-----2-2-0-1-2-2-0-1-2-5~~~~2-------|
PM.................. PM... PM..
Unclean She is...... And She Comes Down...
|---------------------------------------------------------------------------|
|---------------------------------------------------------------------------|
|---------------------4------2----------------------------------------------|
|---------------------4------2------9---9-------9--------9---7---7-------7--|
|---------------------2------0------9---9-------9--------9---7---7-------7--|
|---2-2-0-1-2-2-0-1---2------0------7---7--7--7-7--------7---5---5--5--5-5--|
PM... sl NH
And She Offers..
|-----------------------------------------------|
|-----------------------------------------------|
|-------------------------7----7----------------|
|--9----9-------9------9\\7----7--7--7--4-------|
|--9----9-------9------7\\5----5--5--5--4-------|
|--7----7--7--7-7------7\\5---------------------|
Oh...
PM.. 1/2 p p 1/2 p
|--------------------------------------------------------------------|
|--------------------------------------------------------------------|
|------------------------------4-------------------------------------|
|-------------------------4----4-------------------------------------|
|-------------------------5----2-------------------------------------|
|-2-----4----4BR---2^0----5----------5^4~~~~--2-------4-----4BR--2^0-|
Her Black...
Sl
|----------------------------|
|----------------------------|
|---------------4------------|
|---------------4---7\\\-----|
|-5-------------2---7\\\-----|
|-5-------------2---5\\\-----|
PM............. PM............
|--------------------------------------------------------------|
|--------------------------------------------------------------|
|-------------------------------------------------------4----2-|
|-------------------------------------------------------4----2-|
|----------------------------3^2^0----------------------2----0-|
|--2-2-0-1-2-2-0-1-2-5~~~2~~~----------2-2-0-1-2-2-0-1--2----0-|
Repeat as Necessary
Craig





Ваше мнение



Капча