-##
From: [email protected] (Burning Inside)
Date: 24 Sep 95 21:20:28 -0400
Subject: TAB: "Evil Thing" by Danzig

Evil Thing by Danzig
From the album "Danzig"
Music by Glenn Danzig
Tabbed by Tom Mallon

PH= pinch harmonic
*= harmonic
^= bend
Slide

INTRO
2x PH
E |-----------------------|----------------------------------------------|
B |-----------------------|----------------------------------------------|
G |.---------------------.|----------------------------------------------|
D |.---------------------.|----------------------------------------------|
A |-----------------------|----------------------------------------------|
E |--3----6-3---6^--3-6---|--3----6-3--6^--6---------3----6-3--6^--3-6---|
Half-bend full

FILL ONE
A5 G5 E5
E |------------------|
B |------------------|
G |------------------|
D |---7----5----2----|
A |---7----5----2----|
E |---5----3----0----|

FILL TWO
E |-------------|
B |-------------|
G |---7--/--9---|
D |---7--/--9---|
A |---5--/--7---|
E |-------------|

RIFF A
E |-----------------------------------------|
B |-----------------------------------------|
G |-----------------------------------------|
D |-----------------------------------------|
A |-----------------------------------5-4---|
E |---0---3-0--5-0------0---3-0--5-0--------|

RIFF B
E |-----------------------------------------|
B |-----------------------------------------|
G |-----------------------------------------|
D |--------------------------------3--2-----|
A |----------1---------1----3---------------|
E |---3-3-3----3-3---3----3----3------------|

RIFF C
E |---------------------------------------------|
B |---------------------------------------------|
G |---------------------------------------------|
D |--2------------5-------7--------7--------7---|
A |--2------------5-------7--------7--------7---|
E |--0------------3-------5--5--5--5--5--5--5---|
* * * *

OUTRO 2x PH
E |-----------------------|----------------------------------------------|
B |-----------------------|----------------------------------------------|
G |.---------------------.|----------------------------------------------|
D |.---------------------.|----------------------------------------------|
A |-----------------------|----------------------------------------------|
E |--0----3-0---3^--0--3--|--0----3-0--3^--3-----------------------------|
Half full

-Songflow-
Intro
Fill One
Fill Two
Riff A 8x
Riff B 4x
Riff A 4x
Riff B 4x
Fill One
Riff C 3x
Riff D
Riff A 4x
Riff B 4x
Fill One
Riff C 3x
Riff D





Ваше мнение



Капча