END OF TIME
===========
transcription: Mike Inzerillo

-songflow-
Part 1 times 4
Part 2 times 1
Part 3 times 1
Part 4 times 2
Part 1 times 2
Part 3 times 1
Part 4 times 2
Part 1 times 2
Part 5 times 2
Part 3 under solo
Part 1 times 2
Part 2 times 4 ending on F

Part 1
-----------------------------------------------------------------------
-----------------------------------------------------------------------
------4-----4---4------5-----5---5------7-----7---7------5----5----5---
-----------------------------------------------------------------------
----2-----2---2------3-----3---3------5-----5---5------3---3----3------
--0-----0----------0-----0----------0-----0----------0----0------------

Part 2
-----------------------------------------------------------------------
-----------------------------------------------------------------------
-----------------------------------------------------------------------
---2--------5-------3-------7-------2------5------3----7-7-7-7-7-7-----
---2--------5-------3-------7-------2------5------3----7-7-7-7-7-7-----
---0--------3-------1-------5-------0------3------1----5-5-5-5-5-5-----

R I N G O U T / palm mute

Part 3 times Part 4
------------------------- ----------------------------------
------------------------- ----------------------------------
------------------------- play part 3 but spread the notes out
--2-2--5-5-5--3-3--7-7--- -----------------------------------
--2-2--5-5-5--3-3--7-7--- -----------------------------------
--0-0--3-3-3--1-1--5-5--- -----------------------------------
E G F A
palm mute
Part 5
-----------------------------------
-----------------------------------
------------5555-5--7777-7--5555-5-
---2222-2---5555-5--7777-7--5555-5-
---2222-2---3333-3--5555-5--3333-3-
---0000-0--------------------------





Ваше мнение



Капча