-----------------------------------------------------------------------------
Dead Inside - Danzig
-----------------------------------------------------------------------------
Tabbed by:JohnBrewerTHEripper
Email:[email protected]
Tuning:standard concert tuneing
clean guitar dureing first part of song, later on its got distortion on 'er
e|---------------------------------------------------------------------------|
B|--------3-------------------3----------------------------------------------|
G|----------3---------0-----0------------------------------------------------|
D|------0-----5-----0-----0--------------------------------------------------|
A|----0---------5-1-----0----------------------------------------------------|
E|--3------------------------------------------------------------------------|
distortion
e|---------------------------------------------------------------------------|
B|---------------------------------------------------------------------------|
G|---------------------------------------------------------------------------|
D|--5-5-5-5-8--------------6-6-6---------------------------------------------|
A|--5-5-5-5-8--four times--6-6-6---------------------------------------------|
E|--3-3-3-3-6--------------4-4-4---------------------------------------------|
distortion
e|---------------------------------------------------------------------------|
B|---------------------------------------------------------------------------|
G|--7-6-7-6-5-5-5-4-4-4------------------------------------------------------|
D|--7-6-7-6-5-5-5-4-4-4-5-5-5-6-5-5-5-6--------------------------------------|
A|--5-4-5-4-3-3-3-2-2-2-5-5-5-6-5-5-5-6--------------------------------------|
E|----------------------3-3-3-4-3-3-3-4--------------------------------------|
distortion
e|---------------------------------------------------------------------------|
B|---------------------------------------------------------------------------|
G|--7-6-7-6-5-5-5-4-4-4------------------------------------------------------|
D|--7-6-7-6-5-5-5-4-4-4-5-5-6-5-5-6------------------------------------------|
A|--5-4-5-4-3-3-3-2-2-2-5-5-6-5-5-6------------------------------------------|
E|----------------------3-3-4-3-3-4------------------------------------------|
e|---------------------------------------------------------------------------|
B|---------------------------------------------------------------------------|
G|---------------------------------------------------------------------------|
D|--6-6-6-5------------------------------------------------------------------|
A|--6-6-6-5------------------------------------------------------------------|
E|--4-4-4-3------------------------------------------------------------------|

| / slide up
| slide down
| h hammer-on
| p pull-off
| ~ vibrato
| + harmonic
| x Mute note
===============================================================================





Ваше мнение



Капча