BODIES
======
transcription: Joseph Ninosky, Ryq
INTRO:
eb--------------------------------------------------|
Bb--------------------------------------------------|
Gb-------12--12-----12--12--14p12-------------------|
Db----14---------14----------------14~~~~~----------|
Ab--------------------------------------------------|
Eb--------------------------------------------------|
eb---------------------------------------------------|
Bb-------14------------14----------------------------|
Gb-------14--14~~~-----14--------12--12--14p12-------|
Db----14------------14--------14---------------14~~~-|
Ab---------------------------------------------------|
Eb---------------------------------------------------|
eb---------------------------------------------------|
Bb---12----------15--12------12----------------------|
Gb---14(bend)------------14------14--12---14--12-----|
Db------------------------------------------------14-|
Ab---------------------------------------------------|
Eb---------------------------------------------------|
eb--------------------------------------------------|
Bb--------------------------------------------------|
Gb---12---------------------------------------------|
Db-------14--12--14~~~~~~~~-------------------------|
Ab--------------------------------------------------|
Eb--------------------------------------------------|
verse riff:
Eb|---------0---0---------------------|
Bb|---------0---0---------------------|
Gb|---------0---0---------------------|
Db|-2---2-----------2---2-------------|
Ab|-2---2-----------2---2-------------|
Eb+-0---0-----------0---0---3~--------|
| |
| |
Gb+-----------------------------------|
Db|-----------------------------------|
Ab|-----7---5---5-------7---5--------|
Eb|-0---------------0-----------3-----|
-songflow-
hi-hat...
riff (4x) bass only
riff (4x) w/intro solo
riff (4x)
riff (8x) chorus
riff (8x) verse
riff (8x) chorus
riff (4x) w/solo
riff (12x) bridge (no guitar)
riff (12x) chorus





Ваше мнение



Капча