main riff:
C |---------------------------------|---------------------------------|
G |---------------------------------|---------------------------------|
Eb|-----4-----2---------------------|-----4-----2---------------------|
Bb|-----------------5-----3-3-3-3-3-|-----------------3-----3-3-3-3-3-|
F |-2---------------------3-3-3-3-3-|-2---------------------3-3-3-3-3-|
C +-0-------0-----0-------1-1-1-1-1-|-0-------0-----0-------1-1-1-1-1-+
| pm -----> pm -----> |
| |
Eb+---------------------------------|---------------------------------+
Bb|---------------------------------|---------------------------------|
F |---------------------------------|---------------------------------|
C |-0---7-----5-----3-----1-1-1-1-1-|-0---7-----5-----1-----1-1-1-1-1-|
chorus:
C |---------------------------------|---------------------------------|
G |---------------------------------|---------------------------------|
Eb|-9--------------10---------------|-9--------------10-------7-------|
Bb|-9--------------10---------------|-9--------------10-------7-------|
F |-7---------------8---------------|-7---------------8-------5-------|
C |---------------------------------|---------------------------------|
-songflow-
main (4x)
main (4x)
verse (4x)
chorus (2x)
main (2x)
verse (4x)
main (2x) w/whispering
main (4x) w/solo
chorus (4x)
main (2x)
main (2x)
E





Ваше мнение



Капча