T. See http://www.olga.net/faq/ for more information. #
Date: Mon, 17 Jan 2000 13:58:20 -0800 (PST)
From: Ted Bundy
Subject: d/danzig/belly_of_the_beast.tab
" Belly of the Beast " from the Danzig 6:66 Satans Child album
Written by glenn danzig 1999
TAB'b by Phillip Patch
[email protected]
Timing is between 80-100 i think
Tuning is 1 1/2 steps down
Pretty simple stuff here
Fig. A
D----------------------------------------
A----------------------------------------
E-0-0---0-0---0-0---0-0---5b8---5--------
Fig B
D------------------------------
A------------------------------
E-0-0---0-0---0-0---0-0--------
Fig C
D-2---------7---------5--------
A-2---------7---------5--------
E-0---------5---------3--------
Figure sequence of song
Fig. A x6
Fig. B x4
Fig. A x4
Fig. C x2
Fig. A x4
Fig. B x2
Fig. A x5
Fig. C x4
Fig. A x13 (with fill in solo that i don't know yet)
Fig. B x2
Fig. A x5
Fig. C x4
Fig. A x4
Fig. B x4
(outro with strange effects)
If anyone figures out the solo you can barely hear before i do...
PLEASE let me know





Ваше мнение



Капча