-------------------------------------------------------------------------------
Angel Blake - Danzig
-------------------------------------------------------------------------------
Tabbed by: JohnTHEripper
Email:[email protected]
Tuning:dropp this bitch to d
RIFF NUMBERO UNO- play this clean with lots of hi and mids, minimal bass
e|----1-1-1-----1-1-1-----1-1-1----------------------------------------------|
B|----3-3-3-----2-2-2-----2-2-2----------------------------------------------|
G|----2-2-2-----3-3-3-----3-3-3----------------------------------------------|
D|---------------------------------------------------------------------------|
A|--0-------1-1-------0-0-------1--------------------------------------------|
E|1-------------------------------3-3-1--------------------------------------|
RIFF NUMBERO DOS- supersaturated distortion lots of mids and bass roll back
the high a little
e|---------------------------------------------------------------------------|
B|---------------------------------------------------------------------------|
G|7-7~~~5-8-8----7-7---------------------------------------------------------|
D|7-7~~~5-8-8----7-7---------------------------------------------------------|
A|5-5~~~3-6-6----5-5---------------------------------------------------------|
E|---------------------------------------------------------------------------|
RIFF NUMBERO TRES- that same 'ol distortion
e|---------------------------------------------------------------------------|
B|---------------------------------------------------------------------------|
G|---------------------------------------------------------------------------|
D|---------------------------------------------------------------------------|
A|1---1---1---1---0---0---0---0~~~-------------------------------------------|
E|--2---2---2---2---0---0---0---0~~~-----------------------------------------|
RIFF NUMBERO CUATRO- same 'ol distortey
e|---------------------------------------------------------------------------|
B|---------------------------------------------------------------------------|
G|---------------------------------------------------------------------------|
D|---------------------------------------------------------------------------|
A|0~~~3~~~1----1---0---0-----------------------------------------------------|
E|0~~~3~~~---2---2---0---0---------------------------------------------------|
HERE IS THE KEY
| ~





Ваше мнение



Капча