-##
From: [email protected] (Burning Inside)
Date: 23 Dec 95 00:50:38 -0500
Subject: TAB: "777" by Danzig
From: [email protected]
777 by Danzig
From the album "Danzig II: Lucifuge"
Words and music by Glenn Danzig
Tabbed by Tom Mallon
There's only two riffs to this song, it's very simple:
VERSE
E ---------------------------------------------------------------
B ------------------------------------------------3--------------
G ---------------------------------------------------------------
D -------------------------------------------------------3-2-----
A ---------------------------------------------------------------
E -0-0---0-0-0-3^---0-0---0-0-0-3^---0-0---0-0-0-----0-----------
CHORUS
E |------------------|-------------------------------------------
B |------/9----------|-------------------------------------------
G |.-----/9---------.|-------------------------------------------
D |.-----/9---5--4--.|-------------------------------------------
A |-----------5--4---|-------------------------------------------
E |---0-------3--2---|---3^-0-0---0-0-3^-0-3^-0-3^---------------
*played w/slide
That's it. The slide part might not be exactly where John hits it
On the album but it sounds damn close.





Ваше мнение



Капча