Guitar tabs.com
The start:
------------------------------------------------------------|
-----------------------------------3------------------------|
------------------------------------------------------------|
----------------------------------------3-2-----------------|
------------------------------------------------------------|
-0-0--000--3----0-0-000-3--0-0-000---0------000-3-----------|
------------------------------------------------------------|
-----------------------------------3------------------------|
------------------------------------------------------------|
----------------------------------------3-2-----------------|
------------------------------------------------------------|
-0-0-000--3-----0-0-000-3--0-0-000----0---------------------|
------------------------------------------------------------|
--------9----------------------9---------------9------------|
--------9----------------------9---------------9------------|
--------9----------------------9---------------9------------|
----------------5----4----------------5---4----------5--4---|
---0-------0----3----2----0-------0---3---2--0----0--3--2---|
--------------------------------------------------------------|
------------------------------9--------------9----------------|
------------------------------9--------------9----------------|
------------------------------9--------------9----------------|
------------------------------------5-4----------5-4----------|
--3-0-0-0-3-0-3-0-3----0--------0---2-0----0---0-3-2----------|
-------------------------------------------------------------|
----------9--------------------------------------------------|
----------9--------------------------------------------------|
----------9--------------------------------------------------|
------------------5----4-------------------------------------|
----0--------0----3----2----3-0-0-0-3-0-3-0-3-0--------------|





Ваше мнение



Капча