Macabre
Vampire Of Dusseldorf
Tabbed by: Anthony
Email: [email protected]
will be updated as I figure out more of it...

D#||-----------------------------------|
A#||-----------------------------------|
F#||*----------------------------------|
C#||*----------------------------------|
G#||-------------------8-8-8-8-6-6-6-6-|
D#||---0-0-0-0-7-7-7-7-----------------|

----------------------------------|----------------------------------|
----------------------------------|----------------------------------|
----------------------------------|----------------------------------|
----------------------------------|----------------------------------|
------------------6-6-6-6-4-4-4-4-|------------------8-8-8-8-6-6-6-6-|
--0-0-0-0-6-6-6-6-----------------|--0-0-0-0-7-7-7-7-----------------|
3x
----------------------||-------------------------|-------------------------|
----------------------||-------------------------|-------------------------|
--8---------6--------*||*--4-------4-------------|-------------------------|
--8----8----6--------*||*-------7-----6--6--6----|--4--7--6--4-------------|
--6----8----4---------||-------------------------|--------------7--7--7----|
-------6--------------||-------------------------|-------------------------|

-------------------------|--------------------------||
-------------------------|--------------------------||
-------------------------|--------------4----------*||
-----6--4-----4--4--4----|--4--7--6--4-----6-------*||
--7--------7-------------|--------------------7-----||
-------------------------|--------------------------||

-----------------------------------|----------------------------------|
-----------------------------------|----------------------------------|
*----------------------------------|----------------------------------|
*----------------------------------|----------------------------------|
-------------------8-8-8-8-6-6-6-6-|------------------6-6-6-6-4-4-4-4-|
---0-0-0-0-7-7-7-7-----------------|--0-0-0-0-6-6-6-6-----------------|
3x
----------------------------------|----------------------||----------||
----------------------------------|----------------------||----------||
----------------------------------|--8---------6--------*||----------||
----------------------------------|--8----8----6--------*||----------||
------------------8-8-8-8-6-6-6-6-|--6----8----4---------||----------||
--0-0-0-0-7-7-7-7-----------------|-------6--------------||----------||
www.mindmelt.com/macabre
www.murdermetal.com
If you have a Macabre Tab please email it to me at [email protected]




Ваше мнение



Капча