MACABRE - Sniper in the Sky
as tabbed by Dan Donahue
corrections to [email protected]
unlike other tabbers, i just give you the notes...its a pretty easy song,
just listen to it and play along.
|----------------------------------------|
|----------------------------------------| verse
|----------------------------------------|
|-2---5---7---8-----2---5---7---8-7-5----|
|-2---5---7---8-----2---5---7---8-7-5----|
|-0---3---5---6-----0---3---5---6-5-3----|
|-----------| |------------|
|-----------| |------------|
|-----------| |------------|
|--0-1-3----|4 times |---4-5-7----|4 times chorus
|1----------| |5-----------|
|-----------| |------------|
|-------------------------------------------------|
|-------------------------------------------------|
|-------------------------------------------------| bridge
|-2---2---2-3-----8-7---7---7--8--8---------------|
|-2---2---2-3-----8-7---7---7--8--8---------------|
|-0---0---0-1-----6-5---5---5--6--6---------------|
as i said, just listen to the song to get the strumming and riff patterns correct.
any corrections, send to [email protected]
dan




Ваше мнение



Капча