Mary Bell
by: Macabre
Tabbed by: J
I'm going to do this in two parts, the rythm guitar, and the lead...
with as much of the lead as I can figure out.
Rhytm:
|-------------------------------------------|
|--3-3------3-2/3---5/3/2-------------------|
|------0--------------------3-3-----4-----6-|
|--------0--------0-------------0-----0-----|
|--2-2--------0-----------------------------|
|---------------------------2-2---2-3---3-5-|

Lead intro (played over rythm):
|---------------------------------------------|
|--7-7-8-10-8-7-5-3-2-3---10-8-7--------------|
|-----------------------4--------9-7-6-7-9-7-6|
|---------------------------------------------|
|---------------------------------------------|
|---------------------------------------------|
|---------------------------------------------|
|---------------------------------------------|
|--------------3/4-6--------------------------|
|--------2-4-5--------------------------------|
|--2-4-5--------------------------------------|
|---------------------------------------------|
Fade out part (lead):
|---------------------------------------------|
|--7-8-7-5-------5-------------------3-2------|
|----------7-6-7---7-6-------------3----------|
|----------------------------2-4-5------------|
|----------------------2-4-5------------------|
|---------------------------------------------|
It plays this last part when it fades back in as
well, but just the first nine notes. It recycles
a few times until the end...just listen to the
song and you'll get it.
Take it evil,
J




Ваше мнение



Капча