J.E. Pough -
by Macabre
from the album: Sinister Slaughter
Trascription by : P. Mackay
E-Mail address : [email protected]
Tuning: Eb (1/2 step down)
Tab Notation:
p.m. palm mute
/ slide
~ tremolo picking
I didn't tab the solo due to my excessive laziness. Maybe one day I will? But
if you want to help me out and do it for me, let me now. I would appreciate
it. I did this rather quickly, so there may definitely be a few mistakes.
Please let me know...
Riff1
I added the timing here for kicks
E-|------------------------------------------------------
B-|------------------------------------------------------
G-|------------------------------------------------------
D-|-4-5-3-----4---5-3------------------------------------
A-|-2-3-1-3---2---3-1-3----------------------------------
E-|-------1-----------1----------------------------------
1+2+3+4 1 2 3 & 4
Riff 2
E-|--------------------------------------------------
B-|--------------------------------------------------
G-|--------------------------------------------------
D-|-9-8-11-10----------------------------------------
A-|-7-6--9--8----------------------------------------
E-|-7-6--9--8----------------------------------------
The ending riff......
E-|--------------------------------------------------------
B-|--------------------------------------------------------
G-|--------------------------------------------------------
D-|-4-5-3----4-5-3-----6-7-5----6-7-5----------------------
A-|-2-3-1-3--2-3-1-3---4-5-3-5--4-5-3-5--------------------
E-|-------1--------1---------3--------3--------------------
E-|---------------------------------------------------------
B-|---------------------------------------------------------
G-|---------------------------------------------------------
D-|-8~-9~-7~-----8~-9~-7~-----10~-11~-9~----10~-11~-9~--14/--
A-|-6~-7~-5~-7~--6~-7~-5~-7~---8~--9~-7~-9~--8~--9~-7~--12/--
E-|----------5~-----------5~-------------7~-----------------
p.m................................................




Ваше мнение



Капча