e|----------------------------------
B|----------------------------------
G|----------------------------------
D|----------------------------------
A|-----5-6-1--------5-6-1-----------
E|---3--------6-5-3-------6-5-3-----

this works well for me... this is my very first tab so change it up to you
liking...
Use Power Chords, its sounds even better!

e|--------------------------------------------
B|--------------------------------------------
G|------7-8---3------------7-8---3------------
D|---5--7-8---3---8-7-5----7-8---3---8-7-5----
A|---5--5-6---1---8-7-5----5-6---1---8-7-5----
E|---3------------6-5-3--------------6-5-3----

i think that one works better




Ваше мнение



Капча