Band: Dance Hall Crashers
Song: Pick Up Lines
Bassist: Mikey Weiss
Tabbed by: James Bradley

> means strum

Intro:
G------------------------------------------
D------------------------------------------
A-5>---------------------------------------
E----5>--3>-5>-----------------------------

Verse:
G------------------------------------------
D----4-7-----------------------------------
A--5--------4-7----2-5----4-7--------------
E---------5------3------5------------------

Chorus:
G---------4-2-0----------------------------
D---------------4--------------------------
A----2-5-----------------------------------
E--3---------------------------------------

Other Part of Chorus:
G------------------------------------------
D-----------4-7----------4-----------------
A----4-7--5--------4-7------7-4-7----------
E--5-------------5-------------------------

Solo: (it's after the break in the middle
of the song, but it might be a guitar
playing it)
G--2-2-2-0---------------------------------
D----------4-2-----------------------------
A------------------------------------------
E------------------------------------------

During the horn solo, just play the Verse part.

End on:
G-----------------------------------------
D-----------------------------------------
A--5--------------------------------------
E-----------------------------------------




Ваше мнение



Капча