From [email protected] Thu May 8 13:50:31 1997
Date: Tue, 15 Apr 1997 00:04:27 -0400
From: pancreas
To: [email protected]
Subject: TAB: My Problem by the Dance Hall Crashers
MY PROBLEM by the Dance Hall Crashers
From the album 1989-1992
Chords
Bm Em7 Em13 A1 D Db A2 E
E-----7---7----9-----5---5---6---9---7---------
B-----7---8----8-----5---7---7---10--9----------
G-----7---7----7-----6---7---6---9---9---------
D-----9---9----9-----7---7---8---11--9----------
A-----X---X----X-----X---X---X---X---X-------
E-----X---X----X-----X---X---X---X---X-------
Verse One
Bm Em7 Em13 Em7
Never thought of leaving you today
A1 D Db
Never thought I'd ever feel this
Bm Em7 Em13 Em7
Way, but now I'm gone and you are
A1` D Db
Alone, I hope you're not waiting by the
Bm Em7 Em13 Em7
Phone cause I am never coming
A1 D Db
Back, not because of anything you
Bm Em7 Em13 Em7
Lack. Believe me there's nothing you can
A1 D
Do. The problem's with me and not with you
A1 D E D A2
You've been there for me each and every time
D E D A2
Trust me it's not your problem it is mine
D E D A2
I'm sorry I don't know what's going through my head
D E D
I didn't mean for you to be mislead
Verse Two
For some reason I don't know, it doesn't feel right so I have to go
Don't let it hurt your self-esteem
You'll be some girl's everlasting dream
It has nothing to do with you, please trust me for I'm being true
I'm sorry for the pain it will bring, it's just another dumb girl thing
You've been there for me each and every time
Trust me it's not your problem it is mine
I'm sorry I don't know what's going through my head
I didn't mean for you to be mislead
Solo
E----------------------12-------------------------
B-12-12-12-12-15-12-15-----15-14-15-14-12---------
G-------------------------------------------------
D-------------------------------------------------
A-------------------------------------------------
E-------------------------------------------------
E----------------------------------------------
B-------------------12-------------------------
G-14-14-14-14-11-14----14-11-------------------
D----------------------------------------------
A----------------------------------------------
E----------------------------------------------
E----------------------12-------------------------
B-12-12-12-12-15-12-15-----15-14-15-14-12---------
G-------------------------------------------------
D-------------------------------------------------
A-------------------------------------------------
E-------------------------------------------------
E----------------------------12-12-12--14-14-14---
B-12-12-12-14-14-14-15-15-15----------------------
G-------------------------------------------------
D-------------------------------------------------
A-------------------------------------------------
E-------------------------------------------------
E--12-12-12-------------------------------
B-----------15-15-15-14-14-14-------------
G-----------------------------------------
D-----------------------------------------
A-----------------------------------------
E-----------------------------------------
You've been there for me each and every time
Trust me it's not your problem it is mine
I'm sorry I don't know what's going through my head
I didn't mean for you to be mislead
That's my interpretation...
Feel free to e-mail me for comment, corrections, etc.
Pancreas
[email protected]




Ваше мнение



Капча