#----------------------------------PLEASE NOTE---------------------------------#
#This file is the author's own work and represents their interpretation of the #
#song. You may only use this file for private study, scholarship, or research. #
#------------------------------------------------------------------------------#
Artist : Damien Rice
Song: Prague - Hidden Track
Album: O
Tab: Dezking
This is close to it....and I couldn't care less if it's not perfect...
you play it...you listen..you figure...this is only a start!!!!
Intro
Em C Em C
e:-------------------------------------------------------------------|
B:-------------------------------------------------------------------|
G:----------0--2--2/4--2-----------------0--2--2/4--2---------0------|
D:-------2----------------0-----------2----------------0-------------|
A:---------------------------3----------------------------3----------|
E:---0----------------------------0----------------------------------|

Am D Am
e:----------------------------2----5---------------------------------|
B:----------1--3--/5--3--0----3-------------------1--3--/5--3--0-----|
G:---2---2---------------------------------2---2---------------------|
D:-------------------------------------------------------------------|
A:-------------------------------------------------------------------|
E:-------------------------------------------------------------------|

G D
e:----3----5----2------|
B:----3---------3------|
G:---------------------|
D:---------------------|
A:---------------------|
E:---------------------|

Chorus:
Em C Am B




Ваше мнение



Капча