Damien Rice - Face
I've tabbed this from the Club cafe, Pittsburgh, 16th September 2003 gig. I love this song.
Riff 1. [with dist/reverb effect.]
Am Am F F
e-------------------------------------------------1-----------------------1-----------------------
b-1-----------------------1-----------------------1-----------------------1-----------------------
g-2-----------------------2-----------------------2-----------------------2-----------------------
d-2-----------------------2-----------------------3-----------------------3-------------3/5-2-2-0-
a-0-0-0-2-2-3-3-3/5-3-3-2-0-0-0-2-2-3-3-3/5-3-3-2-3-0-0-2-2-3-3-3/5-3-3-2-3-0-0-2-2-3-3-----------
e-------------------------------------------------1-----------------------1-----------------------
Riff 2.
Am G F
e---------------3-------------1-----------------------
b-1-------------3-------------1-----------------------
g-2-------------4-------------2-----------------------
d-2-------------5-------------3-------------2/3-2-2-0-
a-0-0-0-2-2-3-3-5-0-0-2-2-3-3-3-0-0-2-2-3-3-----------
e---------------3-------------1-----------------------
Riff 3.
Am G
e---------------3---------------------------------
b-1-------------3---------------------------------
g-2-------------4---------------------------------
d-2-------------5-------------2h3-2h3-2h3-2h3-2h3-
a-0-0-0-2-2-3-3-5-0-0-2-2-3-3---------------------
e---------------3---------------------------------
Riff 4.
Am
e---------------
b-1-------------
g-2-------------
d-2-------------
a-0-0-0-2-2-3-3-
e---------------
Intro: [Play Riff 1 four times.]
Verse 1:
Am G F
How I know, go bow end send mend bend pretend, shut your face again
Am G F
Bleed seed believe read breath on my knees, how I choose to
Am G F
Lie cry learn grow so low fall stall, how I build my wall
Am G F
Hate wait bait now and kiss or taste the place and make weather in my face
Chorus:
Am G F
The only one you know
Am G F
I wanna live, don't wanna die, wanna grow old with you
Am G F
I wanna be the only one you know
Am G F
'cause I adore you you you you you you, yeah.
[Play Riff 1 once.]
Verse 2:
Am G F
How I choose bruise loose win sin bin tease please, better have her on her knees
Am G F
Preach you pray you play you rock you feel you kneel you dream, how I choose to scream
Am G F
Shout wake sleep I need to touch her deep, change, rearrange
Am G F
Fate wait weight now kiss or taste the place and make weather in my face
Chorus:
Am G F
The only one you know
Am G F
I wanna live, don't wanna die, wanna grow old with you
Am G F
I wanna be the only one you know
Am G F
'cause I adore you you you you you you, I do yeah.
Interlude: [Play Riff 2 three times, then Riff 3 once. Then play...]
Am - G - F
Am - G - F
Am - G - F
Am G F
You, you, you, you, you, you, you, you, you, you
Chorus: [For the first three lines strum each chord once.]
Am G F
I wanna be the only one that you know of
Am G F
I wanna live, don't wanna die, wanna grow old with you
Am G F
Just wanna be the only one that you know, that you know, that you know
Am
'cause I adore,
Am G F
I adore,
Am G F
I adore,
Am G F
I adore,
Am G F
I adore, adore
Outro: [With Distortion.]
Am G F
Adore you, adore you, adore you
Am G F
Adore you, adore you, adore you
Am G F
Adore you, adore you, adore you
Am G F
Adore you, adore you, adore you
[Then play Riff 1 three times, then end on Riff 4.]
Fin.
Any corrections would be appreciated. Cheers, enjoy.
[email protected]




Ваше мнение



Капча