Artist: Daft Punk
Song Title: Revolution 909
Album: Homework (1997)
Tabbed by: Vuk Krajacic ([email protected])


I wasn't sure if I was to tab this song, because it really don't
have a proper bassline. But it is one of Daft Punk's best songs, so
I made my decision. And this is notsuitable for video version of song.

This is not a regular bassline, only something you can play on your bass
together with the song and I hope it sounds good.


Main riff (00:00)

G------------------------|
D------------------------|
A--2-2-0--2-2-0--2-2-0---|
E------------------------|


Stop at (00:34)


Main riff (00:41)

G------------------------|
D------------------------|
A--2-2-0--2-2-0--2-2-0---|
E------------------------|


Stop at (00:54)


Main riff (01:02)

G-----------------------|
D-----------------------|
A--2-2-0--2-2-0--2-2-0--|
E-----------------------|


Break (01:25)

G--------------------------------------------------------------------|
D--------------------------------------------------------------------|
A--5--5-5-5----2-2-----5--5-5-5----2-2-----5--5-5-5----2-2-----5--5-5|
E--------------------------------------------------------------------|


Main riff (01:32)

G-----------------------|
D-----------------------|
A--2-2-0--2-2-0--2-2-0--|
E-----------------------|


Break (01:40)

G--------------------------------------------------------------------|
D--------------------------------------------------------------------|
A--5--5-5-5----2-2-----5--5-5-5----2-2-----5--5-5-5----2-2-----5--5-5|
E--------------------------------------------------------------------|


Main riff (01:47)

G-----------------------|
D-----------------------|
A--2-2-0--2-2-0--2-2-0--|
E-----------------------|



Break (01:56)

G--------------------------------------------------------------------|
D--------------------------------------------------------------------|
A--5--5-5-5----2-2-----5--5-5-5----2-2-----5--5-5-5----2-2-----5--5-5|
E--------------------------------------------------------------------|



Main riff (02:02)

G-----------------------|
D-----------------------|
A--2-2-0--2-2-0--2-2-0--|
E-----------------------|


Break (02:49)

G--------------------------------------------------------------------|
D--------------------------------------------------------------------|
A--5--5-5-5----2-2-----5--5-5-5----2-2-----5--5-5-5----2-2-----5--5-5|
E--------------------------------------------------------------------|


Main riff (02:55)

G-----------------------|
D-----------------------|
A--2-2-0--2-2-0--2-2-0--|
E-----------------------|



Break (03:04)

G--------------------------------------------------------------------|
D--------------------------------------------------------------------|
A--5--5-5-5----2-2-----5--5-5-5----2-2-----5--5-5-5----2-2-----5--5-5|
E--------------------------------------------------------------------|


Stop at (03:11)


Main riff (03:34)

G-----------------------|
D-----------------------|
A--2-2-0--2-2-0--2-2-0--|
E-----------------------|


Break (03:57)

G--------------------------------------------------------------------|
D--------------------------------------------------------------------|
A--5--5-5-5----2-2-----5--5-5-5----2-2-----5--5-5-5----2-2-----5--5-5|
E--------------------------------------------------------------------|


Main riff (04:41)

G-----------------------|
D-----------------------|
A--2-2-0--2-2-0--2-2-0--|
E-----------------------|


Outro (05:12)

G-----------------------|
D-----------------------|
A--2--2--2--2--2--2--2--|
E-----------------------|


Repeat outro until end.




Ваше мнение



Капча