D12 - Pimp Like Me
Tabbed By: rap_boy
EMail: [email protected]
intro x2
g|-------------------|
d|-------------------|
a|-0---2---3---3---2-|
e|-------------------|
rest of song
riff 1
g|---------------------------------|
d|---------------------------------|
a|-0-0-0-0-----------------0-0-0-1-| riff 1 x1
e|---------4-4-4-4-3-3-3-4---------| riff 2 x1
riff 2
g|-------------------------------|
d|-------------------------------|
a|-0-0-0-0-----------------0-0-0-|
e|---------3-3-3-4-4-4-4-3-------|


Ваше мнение



Капча