Riff 1
E-----5-4-------------9------------------------------------------------|
B---7-----7---7----------X3--------------------------------------------|
G-6---------6---7-6-7--------------------------------------------------|
D----------------------------------------------------------------------|
A----------------------------------------------------------------------|
E----------------------------------------------------------------------|
Riff 2
E-----5-4-------5-4-3--------------------------------------------------|
B---7-----7---7--------------------------------------------------------|
G-6---------6----------------------------------------------------------|
D----------------------------------------------------------------------|
A----------------------------------------------------------------------|
E----------------------------------------------------------------------|




Ваше мнение



Капча