(Correct Tab)
Artist:Cypress Hill
Album:Skull & bones
Tuning:(Drop-D) D,A,D,G
Tabbed by: [email protected]

Intro & Verse:
g:-------------|
d:*-------7---*|
a:*--8-7------*|
d:---------8---|
Chorus:(5)=let ring and do a half bend
g:-----------------------------|
d:*---------------------------*|
a:*---------------------------*|
d:--0-7-7-0-6-6-0-3-3-xxx-(5)--|
Part: (x2)
g:-----------|
d:*---------*|
a:*---------*|
d:--0-0-0----|
Bridge:Play this part with bass drum
g:-----|
d:*---*|
a:*---*|
d:--6--|
If you have a doubt e-mail me:[email protected]

(Incorrect Tab)
Cypress Hill's : Valley of Chrome

allright I'm pretty sure it goes like this



E---00------8-5---------
A--------------------------
D--------------------------
G-------------------------




Ваше мнение



Капча