T. See http://www.olga.net/faq/ for more information. #
From: Julia Menschner
Date: Thu, 10 Feb 2000 20:51:13 +0100
Subject: c/cypress_hill/tequila_sunrise.crd
Band: Cypress Hill
Title: Tequila Sunrise
Tabbed by: [email protected]
There are originally no guitar chords played within the song, but if you
Play it together
With a friend, here is what he (or you) should play:
Em Am
--0-----0----
--0-----1----
--0-----2----
--2-----2----
--x-----x----
--x-----x----
(mute the E- and A-strings somehow)
This is the guitar "bassline" with the chords above it.
Em Am Em
-------------------------------------
--------------3-3---3----------------
--4-4p0-4-5-------5---4--------------
-------------------------------------
-------------------------------------
-------------------------------------
That's all there is to say about it. An MC with a spanish accent is all you
Still will need.
Bye..




Ваше мнение



Капча