Intro:
Fig. 1
Gtr. 1 (bells arr. for clean elec.)
(If you have a whammy pedal, play this one octave up.)
e|-------17----18----17----|-------17----18----17----|
B|----18----18----18----18-|----18----18----18----18-|
G|-19----------------------|-19----------------------|
D|-------------------------|-------------------------|
A|-------------------------|-------------------------|
D|-------------------------|-------------------------|

e|-------17----20----18-17-|-------17----20----18-17-|
B|----18----18----18-------|----18----18----18-------|
G|-19----------------------|-19----------------------|
D|-------------------------|-------------------------|
A|-------------------------|-------------------------|
D|-------------------------|-------------------------|

Verse:
Fig. 2
Gtr. 2 (elec. w/dist.)
P.M. (Palm Mute)
e|---------------------------|---------------------------|
B|---------------------------|---------------------------|
G|---------------------------|---------------------------|
D|-0-0--0-0--0-0--0-0--0-0-0-|-1-1--1-1--1-1--1-1--1-1-1-|
A|-0-0--0-0--0-0--0-0--0-0-0-|-1-1--1-1--1-1--1-1--1-1-1-|
D|-0-0--0-0--0-0--0-0--0-0-0-|-1-1--1-1--1-1--1-1--1-1-1-|

or something like that you can figure it out by listening to it
Chorus:

Fig. 3
(Gtr. 2 plays Fig. 2)
Gtr. 3 (elec. w/dist. & wah)
e|-10-10-10-10-10-10-10-10-|-11-11-11-11-11-11-11-11-|
B|-------------------------|-------------------------|
G|-7--7--7--7--7--7--7--7--|-8--8--8--8--8--8--8--8--|
D|-------------------------|-------------------------|
A|-------------------------|-------------------------|
D|-------------------------|-------------------------|
/// /// /// /// /// /// /// /// /// /// /// ///
(Tremelo Pick)




Ваше мнение



Капча