Cypress Hill - Rock Superstar
Submitted By: rap_boy
EMail: [email protected]
Intro:
Fig. 1
Gtr. 1 (bells arr. for clean elec.)
(If you have a whammy pedal, play this one octave up.)
e|-------17----18----17----|-------17----18----17----|
B|----18----18----18----18-|----18----18----18----18-|
G|-19----------------------|-19----------------------|
D|-------------------------|-------------------------|
A|-------------------------|-------------------------|
D|-------------------------|-------------------------|
e|-------17----20----18-17-|-------17----20----18-17-|
B|----18----18----18-------|----18----18----18-------|
G|-19----------------------|-19----------------------|
D|-------------------------|-------------------------|
A|-------------------------|-------------------------|
D|-------------------------|-------------------------|
Verse:
Fig. 2
Gtr. 2 (elec. w/dist.)
P.M. (Palm Mute)
e|---------------------------|---------------------------|
B|---------------------------|---------------------------|
G|---------------------------|---------------------------|
D|-0-0--0-0--0-0--0-0--0-0-0-|-1-1--1-1--1-1--1-1--1-1-1-|
A|-0-0--0-0--0-0--0-0--0-0-0-|-1-1--1-1--1-1--1-1--1-1-1-|
D|-0-0--0-0--0-0--0-0--0-0-0-|-1-1--1-1--1-1--1-1--1-1-1-|
or something like that you can figure it out by listening to it
Chorus:

Fig. 3
(Gtr. 2 plays Fig. 2)
Gtr. 3 (elec. w/dist. & wah)
e|-10-10-10-10-10-10-10-10-|-11-11-11-11-11-11-11-11-|
B|-------------------------|-------------------------|
G|-7--7--7--7--7--7--7--7--|-8--8--8--8--8--8--8--8--|
D|-------------------------|-------------------------|
A|-------------------------|-------------------------|
D|-------------------------|-------------------------|
/// /// /// /// /// /// /// /// /// /// /// ///
(Tremelo Pick)
===========CYPRESS HILL
ROCK SUPASTAR
FENDA TENDA IN DA HOUSE
THIS SONG IS DROP D. INTRO PLAYED ON A XYLOPHONE.
I------13--17------18------17--13------------I
I--15----------15------15--------------------I
I--------------------------------------------I X2
I--------------------------------------------I
I--------------------------------------------I
I--------------------------------------------I
I------13--17------20-------18-17-------------I
I--15----------15------15---------------------I
I---------------------------------------------I X2
I---------------------------------------------I
I---------------------------------------------I
I---------------------------------------------I
YOU CAN MESS AROUND WITH THIS TO:
I-------------------------------------------------------------------------I
I-------------------------------------------------------------------------I
I-------------------------------------------------------------------------I
I---0-0---0-0---0-0---0-0---0-0---0-0-0-----------------------------------I x1
I---0-0---0-0---0-0---0-0---0-0---0-0-0-----------------------------------I
I---0-0---0-0---0-0---0-0---0-0---0-0-0-----------------------------------I
p.m..................................................
E------------------------------------------------------------------------I
B------------------------------------------------------------------------I
G------------------------------------------------------------------------I
D---1-1---1-1---1-1---1-1---1-1---1-1-1----------------------------------I
A---1-1---1-1---1-1---1-1---1-1---1-1-1----------------------------------Ix1
D---1-1---1-1---1-1---1-1---1-1---1-1-1----------------------------------I
p.m..................................................
PLAY BOTH SETS A LOT.
===========================================================
Cypress Hill Rocksuperstar.
Tabbed by simon skatelabskater@.

1)----------------------------------------------------
2)----------------------------------------------------
3)------4-------5-----------2---------9---------------
4)------4-------5-----------2---------9---------------
5)------2-------3-----------0---------7---------------
6)--1-------1------7----8-------4----9-----7----6-----
let the last note ring. if this doesnt sound write keep
trying it is difficult to play




Ваше мнение



Капча