title: lick a shot
artist: cypress hill
cd: black sunday
transcribed by phi tran ([email protected])

G-------------------------------------------------------| G
--------------------------------------------------------|
D----------13--------------14---------------------------|
D-------------------------------------------------------|
A-----11-------11---12-------12-------------------------| or A
------5-----------6-------------------------------------|
E-------------------------------------------------------|
E---3------3---4------4---------------------------------|

easy song. im not sure which one is right. the one on the right is just
an octave higher, i think that sounds better. any more cypress tabs
should be submitted so i wont have to work so damn hard on figuring
these out.




Ваше мнение



Капча