title: im still #1
artist: cypress hill
cd: in tha beginning... there was rap
transcribed by: phi tran

this sounds like its played on a keyboard or something buti transcribed it to
bass

B------------------------------------------|
D--------5------3--------------------------|
A------------5------3---1------------------|
E------------------------------------------|

(im pretty sure that part is wrong)

B---------------7--5------------------------------------|
D-------------------------------------------------------|
A-------3---5--------------0---3---5--------------------|
E-------------------------------------------------------|

this song is amazing, one of cypresses best works, theres not too many rap
tabatures on here , so im working my hardest to get some more one, if u have
any send them tooo me ,, or if yall have questions or coments e mail me at
[email protected]




Ваше мнение



Капча