Look for a more detailed and constant updated version with powertab at
http://www.cynicalsphere.com/
SENTIMENT
As recorded by Cynic
(From the 1993 Album FOCUS)
Words by Paul Masvidal Music by Cynic
Transcribed by Jeff Litvak
Gtr I (E A D G B E) - 'Paul (Distortion)'
Gtr II (E A D G B E) - 'Jason (Distortion)'
Gtr III (E A D G B E) - 'Paul (Clean Tone)'
Gtr IV (E A D G B E) - 'Jason (Clean Tone)'
Gtr V (D A D G B E) - 'Sean (Bass)'
Q=220
10/8
Gtr V
E E E Q E E E E E E E E Q E E E E E
|---------------------|---------------------|
|---------------------|---------------------|
|---------------------|---------------------|
|---------------------|---------------------|
|---------------------|---------------------|
|-2-2-2-2--2-0-0-5-5--|-2-2-2-2--2-0-0-3-3--|
12/8
E E E Q E E E E E E E E Q E E E E E E E
|---------------------|------------------------|
|---------------------|------------------------|
|---------------------|------------------------|
|---------------------|------------------------|
|---------------------|------------------------|
|-2-2-2-2--2-0-0-5-5--|-2-2-2-2--2-0-0-3-3-0-0-|
10/8
E E E Q E E E E E E E E Q E E E E E
|--------------------|---------------------|
|--------------------|---------------------|
|--------------------|---------------------|
|--------------------|---------------------|
|--------------------|---------------------|
|-2-2-2-2--2-0-0-5-5-|-2-2-2-2--2-0-0-3-3--|
16/8
E E E Q E E E E E E E E Q E E E E E E E E E E E
|--------------------|---------------------------------||
|--------------------|---------------------------------||
|--------------------|---------------------------------||
|--------------------|---------------------------------||
|--------------------|-------------------------5-5-7-7-||
|-2-2-2-2--2-0-0-5-5-|-2-2-2-2--2-0-0-3-3-5-5/---------||
10/8
Gtr I

< >
+H +E H +E +H +W
|----------------19---------(19)--|-(19)-------(19)---------------|
|-(17)-----(17)-------------------|-------------------------------|
|---------------------------------|-------------------------------|
|---------------------------------|-------------------------------|
|---------------------------------|-------------------------------|
|---------------------------------|-------------------------------|
|
| +W +Q +W.
|---------------------------------|-------------------------------|
|---------------------------------|-------------------------------|
|--(1)------------------(1)-------|--(1)--------------------------|
|--(5)------------------(5)-------|--(5)--------------------------|
|--(3)------------------(3)-------|--(3)--------------------------|
|---------------------------------|-------------------------------|
|
| E E E Q E E E E E E E E Q E E E E E E E
|---------------------------------|-------------------------------|
|---------------------------------|-------------------------------|
|---------------------------------|-------------------------------|
|---------------------------------|-------------------------------|
|---------------------------------|-------------------------------|
|---2--2-2---2----2-0-0--5----5---|---2--2-2-2------2-0-0-3-3-0-0-|
10/8
< >
H E H +E +H +H.
|---------------------------|------------------------------|
|-------------20-------(20)-|-(20)-------(20)--------------|
|---------------------------|------------------------------|
|---------------------------|------------------------------|
|---------------------------|------------------------------|
|---------------------------|------------------------------|
|
| Q. H. +E +W +Q
|---------------------------|------------------------------|
|---------------------------|------------------------------|
|--------!1-------------(1)-|--(1)------------------(1)----|
|--------!5-------------(5)-|--(5)------------------(5)----|
|--------!3-------------(3)-|--(3)------------------(3)----|
|---------------------------|------------------------------|
|
| E E E Q E E E E E E E E Q E E E E E
|---------------------------|------------------------------|
|---------------------------|------------------------------|
|---------------------------|------------------------------|
|---------------------------|------------------------------|
|---------------------------|------------------------------|
|-2--2-2--2----2-0-0-5---5--|---2--2-2-2------2-0-0--3--3--|
16/8
< >
W +Q +W W
|-------------------------|--------------------------------------||
|-------------------------|--------------------------------------||
|-17---------------(17)---|-(17)---------------------------------||
|-------------------------|--------------------------------------||
|-------------------------|--------------------------------------||
|-------------------------|--------------------------------------||
|
| +W +Q +W +W
|-------------------------|--------------------------------------||
|-------------------------|--------------------------------------||
|-(1)---------------(1)---|--(1)--------------(1)----------------||
|-(5)---------------(5)---|--(5)--------------(5)----------------||
|-(3)---------------(3)---|--(3)--------------(3)----------------||
|-------------------------|--------------------------------------||
|
| E E E Q E E E E E E E E Q E E E E E E E E E E E
|-------------------------|--------------------------------------||
|-------------------------|--------------------------------------||
|-------------------------|--------------------------------------||
|-------------------------|--------------------------------------||
|-------------------------|------------------------------5-5-7-7-||
|--2--2-2-2--2-0-0---5--5-|---2--2-2-2--2-0-0--3--3-5-5/---------||
Q=118
9/8
Gtr I
Q. +E E. E. E +E
||-------------------------------------|
||o------------------------------------|
||--13------(13)--/9------------------|
||-----------------------7-------------|
||o-11------(11)-------------5--(5)--|
||-------------------------------------|
|
| Gtr II
| H H +E
||-------------------------------------|
||o------------------------------------|
||------------------9------------(9)---|
||---6--------------7------------(7)---|
||o--2--------------5------------(5)---|
||---0--------------5------------(5)---|
12/8
PM------|
E. E. E E. E. E +E S S S S S S
|--------------------------------------------------||
|---------------------------------------------6-9-o||
|-----------------------------------------7-7------||
|-----------7/--11-------------------/6-9----------||
|------5--------------9---------------------------o||
|-3------------------------7---(7)----------------||
|
| PM------|
| H H +E S S S S S S
|--------------------------------------------------||
|-------------------------------------------------o||
|--------------------------------------------------||
|-7-------------11------------(11)--------------6--||
|-5--------------9-------------(9)--------5-5-8---o||
|-3--------------7-------------(7)----4-7----------||
9/8
Q. +E E. E. E +E
|--------------------------------------|
|--------------------------------------|
|-13-------(13)--/11------------------|
|------------------------9-------------|
|-11-------(11)--------------7--(7)--|
|--------------------------------------|
|
| H H +E
|--------------------------------------|
|--------------------------------------|
|-------------------9------------(9)---|
|--6----------------7------------(7)---|
|--2----------------5------------(5)---|
|--0----------------5------------(5)---|
12/8
PM------|
E. E. E E. E. E +E S S S S S S
|--------------------------------------------------||
|---------------------------------------------6-9--||
|-----------------------------------------7-7------||
|-----------7/--11-------------------/6-9----------||
|------5--------------9----------------------------||
|-3------------------------7---(7)----------------||
|
| PM------|
| H H +E S S S S S S
|--------------------------------------------------||
|--------------------------------------------------||
|--------------------------------------------------||
|-7-------------11------------(11)--------------6--||
|-5--------------9-------------(9)--------5-5-8----||
|-3--------------7-------------(7)----4-7----------||
Q=105 Q=112 Q=118
5/8 4/4
Gtr III
H E H. +E E Q E Q Q E +W
|---------|-----------------|-------0-------|--------||
|---------|-----------------|---------------|--------||
|---------|-----------------|----------0----|--------||
|-10------|-12-------(12)---|-!4--4-------4-|-(4)----||
|-11------|--0--------(0)---|-!4------------|--------||
|--8------|-10-------(10)---|-!2------------|--------||
|
| Gtr IV
| H E H. +E E W +W
|---------|-----------------|---------------|--------||
|---------|-----------------|---------------|--------||
|---------|-----------------|-!0------------|-(0)----||
|-10------|-12-------(12)---|-!4------------|-(4)----||
|-11------|--0--------(0)---|-!4------------|-(4)----||
|--8------|-10-------(10)---|-!2------------|-(2)----||
Gtrs III, IV
E. E. H +E E. E. H +E E. E. H +E E. E. H +E
|----------------|----------------|----------------|-----------------|
|----------------|----------------|----------------|-----------------|
|-------0----(0)-|-------6----(6)-|-------0----(0)-|-------6----(6)--|
|----4-----------|----5-----------|----4-----------|----5------------|
|----------------|----------------|----------------|-----------------|
|-2--------------|-3--------------|-2--------------|-3---------------|
E. E. H +E E. E. H +E E. E. H +E E. E. Q Q +E
||-----------------|----------------|----------------|------------------||
||o----------------|----------------|----------------|-----------------o||
||--------0----(0)-|-------6----(6)-|-------5----(5)-|-------0----------||
||-----4-----------|----5-----------|----4-----------|----4-----4--(4)--||
||o----------------|----------------|----------------|-3---------------o||
||--2--------------|-3--------------|-2--------------|------------------||
Gtr I
Q. E E. E. E Q. E E. E. E
|----------------------------------|------------------------------------|
|----------------------------------|------------------------------------|
|--8--------------8----------------|-------------------8----------------|
|--8----------------------------8--|-------------------------8----------|
|-11----------11--------11---------|---------------11--------------11---|
|--8-------------------------------|---8--------------------------------|
|
| Gtr IV
| E E E E E E E E Q a E Q E E E
|-----------------8----------------|------------------------------------|
|------11--9----------9------------|---------9s11s==9------8s===6-------|
|--------------8------------12-----|--------------------------------8/--|
|-------------------------------8--|--------10s12s=10------8s===6-------|
|----------------------------------|------------------------------------|
|--8-------------------------------|-8----------------------------------|
Q. E E. E. E Q. E E. E. E
|----------------------------------|----------------------------------|
|----------------------------------|----------------------------------|
|--10--------------10--------------|------------------12--------------|
|--10--------------------14--------|------------------------14--------|
|--12----------12--------------12--|--------------12--------------12--|
|--10------------------------------|--10------------------------------|
|
| E. E. E E. E. E E. E. E E. E. E
|--13------------------------------|------------------10--------------|
|--------13------------------------|------------------------10--------|
|--------------12------------------|------------------------------10--|
|------------------12--------------|--------------12------------------|
|------------------------12--------|--------12------------------------|
|------------------------------10--|--10------------------------------|
Q. E E. E. E Q. E E. E. E
|-----------------------------|----------------------------|
|-----------------------------|----------------------------|
|-----------------------------|----------------------------|
|--5-----------5--------------|---------------5------------|
|--3-------6---------6-----5--|--(5)-------6-------6----5--|
|--4--------------------------|---4------------------------|
|
| H +E E Q Q Q Q E E
|-^4----------(4)--4----4-----|---4-----4-----4----6-------|
|-^4----------(4)--4----4-----|---4-----4-----4---------4--|
|-^5----------(5)--5----5-----|---5-----5-----5------------|
|-^6----------(6)--6----6-----|---6-----6-----6------------|
|-^6----------(6)-------------|----------------------------|
|-^4----------(4)-------------|----------------------------|
W +W
|-------------------------------|-----------||
|-------------------------------|-----------||
|---0---------------------------|---(0)-----||
|---5---------------------------|---(5)-----||
|---5---------------------------|---(5)-----||
|---3---------------------------|---(3)-----||
|
| H +Q E E +W
|--^3--------(3)/---------------|-----------||
|--^3--------(3)/-----^12--!12--|--(12)/----||
|--^0--------(0)------^12--!12--|--(12)/----||
|--^0--------(0)------^12--!12--|--(12)/----||
|--^x---------------------------|-----------||
|--^3--------(3)/---------------|-----------||
Gtr III
PM-| PM---| PM---| PM| PM---| PM---|
|--3--| |--3--| |--3--| |--3--|
S S S S S S S S S S S S S S S S S S S S S S S S S S S S S S S S S S S S
||----------------------------------------------------|--------------------------------------------------|
||o---------------------------------------------------|--------------------------------------------------|
||--------9h11h12-11--------9h11h12-11----------11-11-|-------9h11h12--11--------9h11h12-11----------9-9-|
||------9------------9----9------------9-----9--------|----9--------------9----9------------9-----9------|
||o-10-----------------10----------------10-----------|-10------------------10----------------10---------|
||----------------------------------------------------|--------------------------------------------------|
|
| Gtr IV
| E. E. H +E E. E. H +E
||----------------------------------------------------|--------------------------------------------------|
||o---------------------------------------------------|--------------------------------------------------|
||-------------------0----------------------(0)-------|----------------------6-------------------(6)-----|
||-----------4----------------------------------------|-------------5------------------------------------|
||o---------------------------------------------------|--------------------------------------------------|
||---2------------------------------------------------|----3---------------------------------------------|
PM| PM---| PM---| PM|
|--3--| |--3--|
S S S S S S S S S S S S S S S S S S S S E E Q E Q
|----------------------------------------------------|------------------------------------------||
|----------------------------------------------------|-----------------------------------------o||
|-------9h11h12--11--------9h11h12-11----------11-11-|---------11----12--------------9---------||
|----9--------------9----9------------9-----9--------|-------------------12------10-------------||
|-10------------------10----------------10-----------|-----------------------------------------o||
|----------------------------------------------------|-12-12------------------------------------||
|
| E. E. H +E E. E. Q Q +E
|----------------------------------------------------|------------------------------------------||
|----------------------------------------------------|-----------------------------------------o||
|----------------------5-------------------(5)-------|--------------------0---------------------||
|-------------4--------------------------------------|------------4------------4---------(4)----||
|----------------------------------------------------|-----3-----------------------------------o||
|----2-----------------------------------------------|------------------------------------------||
9/8
Gtr I
Q. +E E. E. E +E
||--------------------------------------|
||o-------------------------------------|
||--13-------(13)--/9------------------|
||------------------------7-------------|
||o-11-------(11)-------------5--(5)--|
||--------------------------------------|
|
| Gtr II
| H H +E
||--------------------------------------|
||o-------------------------------------|
||-------------------9------------(9)---|
||---6---------------7------------(7)---|
||o--2---------------5------------(5)---|
||---0---------------5------------(5)---|
12/8
PM------|
E. E. E E. E. E +E S S S S S S
|--------------------------------------------------||
|---------------------------------------------6-9-o||
|-----------------------------------------7-7------||
|-----------7/--11-------------------/6-9----------||
|------5--------------9---------------------------o||
|-3------------------------7---(7)----------------||
|
| PM------|
| H H +E S S S S S S
|--------------------------------------------------||
|-------------------------------------------------o||
|--------------------------------------------------||
|-7-------------11------------(11)--------------6--||
|-5--------------9-------------(9)--------5-5-8---o||
|-3--------------7-------------(7)----4-7----------||
9/8
Q. +E E. E. E +E
|--------------------------------------|
|--------------------------------------|
|-13-------(13)--/11------------------|
|------------------------9-------------|
|-11-------(11)--------------7--(7)--|
|--------------------------------------|
|
| H H +E
|--------------------------------------|
|--------------------------------------|
|-------------------9------------(9)---|
|--6----------------7------------(7)---|
|--2----------------5------------(5)---|
|--0----------------5------------(5)---|
12/8
PM------|
E. E. E E. E. E +E S S S S S S
|-------------------------------------------------||
|---------------------------------------------6-9-||
|-----------------------------------------7-7-----||
|-----------7/--11-------------------/6-9---------||
|------5--------------9---------------------------||
|-3------------------------7---(7)---------------||
|
| PM------|
| H H +E S S S S S S
|-------------------------------------------------||
|-------------------------------------------------||
|-------------------------------------------------||
|-7-------------11------------(11)--------------6-||
|-5--------------9-------------(9)--------5-5-8---||
|-3--------------7-------------(7)----4-7---------||
Q=102
2/4
Gtr III
S S S S S S S S +S S S S S S S S
|-------------------------|---------------------------|
|-------------------------|---------------------------|
|-11-------11----11----11-|-(11)-------11-------11----|
|-------11----------------|---------11----11----------|
|----15-------15----15----|------15----------15----15-|
|-------------------------|---------------------------|
|
| Gtr II
| H +H
|-------------------------|---------------------------|
|-19----------------------|-(19)----------------------|
|-------------------------|---------------------------|
|-------------------------|---------------------------|
|-------------------------|---------------------------|
|-------------------------|---------------------------|
S S S S S S S S +S S S S S S S S
|---------------------------|-----------------------------------|
|---------------------------|-----------------------------------|
|-11---------11-------11----|--------------11------------11-----|
|---------11----11----------|----------11-------11--------------|
|------15----------15----15-|-(15)-15---------------15------15--|
|---------------------------|-----------------------------------|
|
| 4_______________________________________/2_______2______/
| H +E +S E +E S
|---------------------------|-----------------------------------|
|-19------------------------|-(19)----(19)------------------18--|
|---------------------------|--------------18------(18)---------|
|---------------------------|-----------------------------------|
|---------------------------|-----------------------------------|
|---------------------------|-----------------------------------|
S S S S S S S S +S S S S S S S S
|---------------------------|------------------------------|
|---------------------------|------------------------------|
|--11--------11----11----11-|-(11)-------11--------11------|
|---------11----------------|---------11----11-------------|
|------15-------15----15----|------15----------15-------15-|
|---------------------------|------------------------------|
|
| +H +Q. +E
|---------------------------|------------------------------|
|-(18)----------------------|-(18)----------------(18)----|
|---------------------------|------------------------------|
|---------------------------|------------------------------|
|---------------------------|------------------------------|
|---------------------------|------------------------------|
S S S S S S S S +S S S S S S S S
|---------------------------|-------------------------------|
|---------------------------|-------------------------------|
|--11--------11-------11----|--------------11-------11------|
|---------11----11----------|-----------11----11------------|
|------15----------15----15-|-(15)-15------------15-----15--|
|---------------------------|-------------------------------|
|
| 6_______________________
| E. E E S +S Q. +S
|---------------------------|-------------------------------|
|-/18-----------------------|-------------------------------|
|------------17-------------|-------------------------------|
|------------------17-------|-------------------------------|
|------------------------16-|-(16)s15------------------(15)-|
|---------------------------|-------------------------------|
S S S S S S S S +S S S S S S S S
|---------------------------|---------------------------|
|---------------------------|---------------------------|
|--11--------11----11----11-|-(11)-------11-------11----|
|---------11----------------|---------11----11----------|
|------15-------15----15----|------15----------15----15-|
|---------------------------|---------------------------|
|
| /
| +Q Q +Q. E
|---------------------------|---------------------------|
|---------------------------|---------------------------|
|---------------------------|---------------------------|
|---------------------------|---------------------18----|
|-(15)----------------------|---------------------------|
|---------------14----------|-(14)----------------------|
S S S S S S S S +S S S S S S S S
|--------------------------|-----------------------------|
|--------------------------|-----------------------------|
|-11-------11--------11----|------------11---------11----|
|-------11----11-----------|---------11-----11-----------|
|----15----------15-----15-|-(15)-15------------15----15-|
|--------------------------|-----------------------------|
|
| ~~~
| S E E E. +Q +S E S
|--------------------------|--------------------20-------|
|----------20----19--------|-(19)----------(19)-------19-|
|----18--------------------|-----------------------------|
|-19-----------------------|-----------------------------|
|--------------------------|-----------------------------|
|--------------------------|-----------------------------|
S S S S S S S S +S S S S S S S S
|---------------------------|---------------------------|
|---------------------------|---------------------------|
|-11---------11----11----11-|-(11)-------11-------11----|
|---------11----------------|---------11----11----------|
|-----15--------15----15----|------15----------15----15-|
|---------------------------|---------------------------|
|
| 6
| S. S. E E S +H
|-20---------20-------------|---------------------------|
|-----19-----------19----19-|-(19)----------------------|
|---------------------------|---------------------------|
|---------------------------|---------------------------|
|---------------------------|---------------------------|
|---------------------------|---------------------------|
S S S S S S S S +S S S S S S S S
|---------------------------|---------------------------||
|---------------------------|---------------------------||
|--11--------11-------11----|------------11-------11----||
|---------11----11----------|---------11----11----------||
|------15----------15----15-|-(15)-15----------15----15-||
|---------------------------|---------------------------||
|
| +H +H
|---------------------------|---------------------------||
|-(19)----------------------|-(19)----------------------||
|---------------------------|---------------------------||
|---------------------------|---------------------------||
|---------------------------|---------------------------||
|---------------------------|---------------------------||
Q=118
4/4
Gtr I
PM-| PM---| PM---| PM-
|--3--| |--3--|
S S S S S S S S S S S S S S S S S S
|-----------------------------------------------|
|-----------------------------------------------|
|-------9h11h12-11--------9h11h12-11--------9---|
|-----9------------9----9------------9----9---9-|
|-10-----------------10----------------10-------|
|-----------------------------------------------|
|
| Gtr II
| PM| PM|
| Q. S S Q S S E
|-----------------------------------------------|
|-----------------------------------------------|
|--6-------------------------6--------------4---|
|--4--------------------4-4--5----------5-5-5---|
|-----------------------------------------------|
|-----------------------------------------------|
-----| PM---| PM---| PM
|--3--| |--3--|
S S S S S S S S S S S S S S S S S S
|------------------------------------------------|
|------------------------------------------------|
|-------9h11h12-11--------9h11h12-11--------9----|
|-----9------------9----9------------9----9---9--|
|-10-----------------10----------------10--------|
|------------------------------------------------|
|
| +E E E E E E E E
|------------------------------------------------|
|----------------------------2-------------------|
|-(4)---------4---------4----------4--------4----|
|-(5)--------------5--------------------5--------|
|------------------------------------------------|
|------------------------------------------------|
PM| PM---| PM---|
|--3--| |--3--|
S S S S S S S S S S S S S S S S S S
|----------------------------------------------|
|----------------------------------------------|
|------9h11h12-11--------9h11h12-11--------9-9-|
|----9------------9----9------------9----9-----|
|-10----------------10----------------10-------|
|----------------------------------------------|
|
| E E E Q E Q
|----------------------------------------------|
|-----------------1----------------------------|
|------3--------------------------3------------|
|--4---------4-------------------------4-------|
|----------------------------------------------|
|----------------------------------------------|
PM------| PM-------------| PM|
S S S S S S S S S S S S S S S S
|------------------------------------------------|
|------------------------------------------------|
|-------11-11-12-12--------------------9-9-------|
|-------------------12-12--------10-10-----------|
|------------------------------------------------|
|-12-12--------------------10-10-----------11-8--|
|
| E E E Q E Q
|------------------------------------------------|
|------------------------------------------------|
|--------------------0---------------------------|
|--------2---------------------------2-----------|
|--3-----------3-------------------------3-------|
|------------------------------------------------|
PM-| PM---| PM---| PM-
|--3--| |--3--|
S S S S S S S S S S S S S S S S S S
|------------------------------------------------|
|------------------------------------------------|
|-------9h11h12-11--------9h11h12-11--------11---|
|-----9------------9----9------------9----9----9-|
|-10-----------------10----------------10--------|
|------------------------------------------------|
|
| PM| PM|
| Q. S S Q S S E
|------------------------------------------------|
|------------------------------------------------|
|--6-------------------------6---------------4---|
|--4--------------------4-4--5----------5-5--5---|
|------------------------------------------------|
|------------------------------------------------|
-----| PM---| PM---| PM
|--3--| |--3--|
S S S S S S S S S S S S S S S S S S
|-----------------------------------------------|
|-----------------------------------------------|
|-------9h11h12-11--------9h11h12-11--------9---|
|-----9------------9----9------------9----9---9-|
|-10-----------------10----------------10-------|
|-----------------------------------------------|
|
| +E E E E E E E E
|-----------------------------------------------|
|-----------------------2-----------------------|
|-(4)--------------4---------4----------4-------|
|-(5)---------5--------------------5--------5---|
|-----------------------------------------------|
|-----------------------------------------------|
PM| PM---| PM---|
|--3--| |--3--|
S S S S S S S S S S S S S S S S S S
|----------------------------------------------|
|----------------------------------------------|
|------9h11h12-11--------9h11h12-11--------9-9-|
|----9------------9----9------------9----9-----|
|-10----------------10----------------10-------|
|----------------------------------------------|
|
| E E E Q E Q
|----------------------------------------------|
|-----------------1----------------------------|
|------3--------------------------3------------|
|--4---------4-------------------------4-------|
|----------------------------------------------|
|----------------------------------------------|
PM------| PM------------| PM|
S S S S S S S S S S S S S S S S
|----------------------------------------------||
|----------------------------------------------||
|-------11-11-12-12-------------------9-9------||
|-------------------12-12-------10-10----------||
|----------------------------------------------||
|-12-12-------------------10-10-----------11-8-||
|
| E E E Q E Q
|----------------------------------------------||
|----------------------------------------------||
|--------------------0-------------------------||
|--------2--------------------------2----------||
|--3-----------3------------------------3------||
|----------------------------------------------||
Gtr I
Q. E E. E. E Q. E E. E. E
|----------------------------------|------------------------------------|
|----------------------------------|------------------------------------|
|--8--------------8----------------|-------------------8----------------|
|--8----------------------------8--|-------------------------8----------|
|-11----------11--------11---------|---------------11--------------11---|
|--8-------------------------------|---8--------------------------------|
|
| Gtr IV
| E E E E E E E E Q a E Q E E E
|-----------------8----------------|------------------------------------|
|------11--9----------9------------|---------9s11s==9------8s===6-------|
|--------------8------------12-----|--------------------------------8/--|
|-------------------------------8--|--------10s12s=10------8s===6-------|
|----------------------------------|------------------------------------|
|--8-------------------------------|-8----------------------------------|
Q. E E. E. E Q E E E. E. E
|----------------------------------|------------------------------------|
|----------------------------------|--------------------10--------------|
|--10--------------10--------------|------------10------------10--------|
|--10--------------------14--------|----------------12--------------12--|
|--12----------12--------------12--|------------------------------------|
|--10------------------------------|--10--------------------------------|
|
| E. E. E E. E. E E. E. E E. E. E
|--13------------------------------|--------------------10--------------|
|--------13------------------------|--------------------------10--------|
|--------------12------------------|--------------------------------10--|
|------------------12--------------|----------------12------------------|
|------------------------12--------|--------12--------------------------|
|------------------------------10--|--10--------------------------------|
Q. E E. E. E Q. E E. E. E
|----------------------------|-----------------------------|
|----------------------------|-----------------------------|
|----------------------------|-----------------------------|
|-5-----------5--------------|---------------5-------------|
|-3-------6---------6-----5--|--(5)-------6-------6-----5--|
|-4--------------------------|---4-------------------------|
|
| H +E E Q Q Q Q E E
|-4----------(4)--4----4-----|---4-----4-----4-------6-----|
|-4----------(4)--4----4-----|---4-----4-----4----------4--|
|-5----------(5)--5----5-----|---5-----5-----5-------------|
|-6----------(6)--6----6-----|---6-----6-----6-------------|
|-6----------(6)-------------|-----------------------------|
|-4----------(4)-------------|-----------------------------|
W +W
|-----------------------------|--------------||
|-----------------------------|--------------||
|--0--------------------------|-(0)----------||
|--5--------------------------|-(5)----------||
|--5--------------------------|-(5)----------||
|--3--------------------------|-(3)----------||
|
| H +Q E E +W
|--3--------(3)/--------------|--------------||
|--3--------(3)/----^12--!12--|-----(12)/----||
|--0--------(0)-----^12--!12--|-----(12)/----||
|--0--------(0)-----^12--!12--|-----(12)/----||
|--x--------------------------|--------------||
|--3--------(3)/--------------|--------------||
Q=230
10/8
Gtr IV
E E E Q E E E E E E Q E E E E E E E
||--------------------------------|--------------------------------|
||o-7--0--0--7----0--8h=10--7--7--|-0--7-----0--5--0--7h=8--10--7--|
||--------------------------------|--------------------------------|
||--------------------------------|--------------------------------|
||o-------------------------------|--------------------------------|
||--------------------------------|--------------------------------|
|
| Gtr V
| E E E Q E E E E E E E E Q E E E E E
||--------------------------------|--------------------------------|
||o-------------------------------|--------------------------------|
||--------------------------------|--------------------------------|
||--------------------------------|--------------------------------|
||o-2--2--2--2----2--0---0--5--5--|-2--2--2--2-----2--0--0---3--3--|
||--------------------------------|--------------------------------|
E E E Q E E E E E E Q E E E E E Q
|--------------------------------|----------------------9------9------||
|--7--7--0--7----0--8h=10--7--0--|--0--7------------11-----11---------o||
|--------------------------------|-----------8s=11---------------------||
|--------------------------------|-------------------------------------||
|--------------------------------|------------------------------------o||
|--------------------------------|-------------------------------------||
|
| E E E Q E E E E E E E E Q E E E E E
|--------------------------------|-------------------------------------||
|--------------------------------|------------------------------------o||
|--------------------------------|-------------------------------------||
|--------------------------------|-------------------------------------||
|--2--2--2--2----2--0---0--5--5--|--2--2--2--2-------2--0---0--3---3--o||
|--------------------------------|-------------------------------------||
Gtr I
< >
H. +H +H. +H
|-------------------------|---------------------------|
|-19-----------(19)-------|-(19)-----------(19)-------|
|-------------------------|---------------------------|
|-------------------------|---------------------------|
|-------------------------|---------------------------|
|-------------------------|---------------------------|
|
| Gtr IV
| E E E Q E E E E E E Q E E E E E E E
|-------------------------|---------------------------|
|--7--0-0-7--0---8h10-7-7-|---0--7---0-5-0---7h8-10-7-|
|-------------------------|---------------------------|
|-------------------------|---------------------------|
|-------------------------|---------------------------|
|-------------------------|---------------------------|
|
| Gtr V
| E E E Q E E E E E E E E Q E E E E E
|-------------------------|---------------------------|
|-------------------------|---------------------------|
|-------------------------|---------------------------|
|-------------------------|---------------------------|
|--2--2-2-2--2---0--0-5-5-|---2--2-2-2---2---0-0--3-3-|
|-------------------------|---------------------------|
< >
H. +H +H. +H
|-------------------------|--------------------------------|
|-17-----------(17)-------|-(17)-------------(17)----------|
|-------------------------|--------------------------------|
|-------------------------|--------------------------------|
|-------------------------|--------------------------------|
|-------------------------|--------------------------------|
|
| E E E Q E E E E E E Q E E E E E Q
|-------------------------|--------------------9-----9----|
|--7--7-0-7--0---8h10-7-0-|---0--7--------11------11-------|
|-------------------------|----------8s11------------------|
|-------------------------|--------------------------------|
|-------------------------|--------------------------------|
|-------------------------|--------------------------------|
|
| E E E Q E E E E E E E E Q E E E E E
|-------------------------|--------------------------------|
|-------------------------|--------------------------------|
|-------------------------|--------------------------------|
|-------------------------|--------------------------------|
|--2--2-2-2--2---0--0-5-5-|---2--2-2-2-----2---0---0-3--3--|
|-------------------------|--------------------------------|
< >
H. +H +H. +H
|-------------------------|---------------------------|
|-15-----------(15)-------|-(15)-----------(15)-------|
|-------------------------|---------------------------|
|-------------------------|---------------------------|
|-------------------------|---------------------------|
|-------------------------|---------------------------|
|
| E E E Q E E E E E E Q E E E E E E E
|-------------------------|---------------------------|
|--7--0-0-7--0---8h10-7-7-|---0--7---0-5-0---7h8-10-7-|
|-------------------------|---------------------------|
|-------------------------|---------------------------|
|-------------------------|---------------------------|
|-------------------------|---------------------------|
|
| E E E Q E E E E E E E E Q E E E E E
|-------------------------|---------------------------|
|-------------------------|---------------------------|
|-------------------------|---------------------------|
|-------------------------|---------------------------|
|--2--2-2-2--2---0--0-5-5-|---2--2-2-2---2---0-0--3-3-|
|-------------------------|---------------------------|
< >
H. +H +H. +H
|-------------------------|----------------------------------|
|-20-----------(20)-------|-(20)-------------(20)------------|
|-------------------------|----------------------------------|
|-------------------------|----------------------------------|
|-------------------------|----------------------------------|
|-------------------------|----------------------------------|
|
| E E E Q E E E E E E Q E E E E E Q
|-------------------------|--------------------9-----9------|
|--7--7-0-7--0---8h10-7-0-|---0--7--------11------11---------|
|-------------------------|----------8s11--------------------|
|-------------------------|----------------------------------|
|-------------------------|----------------------------------|
|-------------------------|----------------------------------|
|
| E E E Q E E E E E E E E Q E E E E E
|-------------------------|----------------------------------|
|-------------------------|----------------------------------|
|-------------------------|----------------------------------|
|-------------------------|----------------------------------|
|--2--2-2-2--2---0--0-5-5-|---2--2-2-2-----2---0---0-3--3----|
|-------------------------|----------------------------------|
4/4
< >

+H. +Q +W
|------------------------|-------------------------|
|------------------------|-------------------------|
|------------------------|-------------------------|
|-(17)------------(17)---|-(17)--------------------|
|------------------------|-------------------------|
|------------------------|-------------------------|
|
| +E E E E E E E E +E E E E E E Q
|------------------------|--------------9----9----|
|--(7)-0-8h10-7-0---0--7-|--(7)------11---11-------|
|------------------------|------8s11---------------|
|------------------------|-------------------------|
|------------------------|-------------------------|
|------------------------|-------------------------|
|
| E E E E E E E E E E E E E E E E
|------------------------|-------------------------|
|------------------------|-------------------------|
|------------------------|-------------------------|
|------------------------|-------------------------|
|---7--7-7--7-7-7---7--7-|---0--0--0--0-0--0-0--0--|
|------------------------|-------------------------|
10/8
< >
H. +H +H. +H
|-------------------------|---------------------------|
|-------------------------|---------------------------|
|-14-----------(14)-------|-(14)-----------(14)-------|
|-------------------------|---------------------------|
|-------------------------|---------------------------|
|-------------------------|---------------------------|
|
| E E E Q E E E E E E Q E E E E E E E
|-------------------------|---------------------------|
|--7--0-0-7--0---8h10-7-7-|---0--7---0-5-0---7h8-10-7-|
|-------------------------|---------------------------|
|-------------------------|---------------------------|
|-------------------------|---------------------------|
|-------------------------|---------------------------|
|
| E E E Q E E E E E E E E Q E E E E E
|-------------------------|---------------------------|
|-------------------------|---------------------------|
|-------------------------|---------------------------|
|-------------------------|---------------------------|
|--2--2-2-2--2---0--0-5-5-|---2--2-2-2---2---0-0--3-3-|
|-------------------------|---------------------------|
< >
H. +H +H. +H
|-------------------------|-------------------------------|
|-17-----------(17)-------|-(17)-------------(17)---------|
|-------------------------|-------------------------------|
|-------------------------|-------------------------------|
|-------------------------|-------------------------------|
|-------------------------|-------------------------------|
|
| E E E Q E E E E E E Q E E E E E Q
|-------------------------|--------------------9-----9---|
|--7--7-0-7--0---8h10-7-0-|---0--7--------11------11------|
|-------------------------|----------8s11-----------------|
|-------------------------|-------------------------------|
|-------------------------|-------------------------------|
|-------------------------|-------------------------------|
|
| E E E Q E E E E E E E E Q E E E E E
|-------------------------|-------------------------------|
|-------------------------|-------------------------------|
|-------------------------|-------------------------------|
|-------------------------|-------------------------------|
|--2--2-2-2--2---0--0-5-5-|---2--2-2-2-----2---0---0-3--3-|
|-------------------------|-------------------------------|
< >
H. +H +H. +H
|-19-----------(19)-------|-(19)-----------(19)-------|
|-------------------------|---------------------------|
|-------------------------|---------------------------|
|-------------------------|---------------------------|
|-------------------------|---------------------------|
|-------------------------|---------------------------|
|
| E E E Q E E E E E E Q E E E E E E E
|-------------------------|---------------------------|
|--7--0-0-7--0---8h10-7-7-|---0--7---0-5-0---7h8-10-7-|
|-------------------------|---------------------------|
|-------------------------|---------------------------|
|-------------------------|---------------------------|
|-------------------------|---------------------------|
|
| E E E Q E E E E E E E E Q E E E E E
|-------------------------|---------------------------|
|-------------------------|---------------------------|
|-------------------------|---------------------------|
|-------------------------|---------------------------|
|--2--2-2-2--2---0--0-5-5-|---2--2-2-2---2---0-0--3-3-|
|-------------------------|---------------------------|
< >
H. +H +H. +H
|-15-----------(15)-------|-(15)-------------(15)----------|
|-------------------------|--------------------------------|
|-------------------------|--------------------------------|
|-------------------------|--------------------------------|
|-------------------------|--------------------------------|
|-------------------------|--------------------------------|
|
| E E E Q E E E E E E Q E E E E E Q
|-------------------------|--------------------9-----9----|
|--7--7-0-7--0---8h10-7-0-|---0--7--------11------11-------|
|-------------------------|----------8s11------------------|
|-------------------------|--------------------------------|
|-------------------------|--------------------------------|
|-------------------------|--------------------------------|
|
| E E E Q E E E E E E E E Q E E E E E
|-------------------------|--------------------------------|
|-------------------------|--------------------------------|
|-------------------------|--------------------------------|
|-------------------------|--------------------------------|
|--2--2-2-2--2---0--0-5-5-|---2--2-2-2-----2---0---0-3--3--|
|-------------------------|--------------------------------|
< >
H. +H +H. +H
|-------------------------|---------------------------|
|-------------------------|---------------------------|
|-17-----------(17)-------|-(17)-----------(17)-------|
|-------------------------|---------------------------|
|-------------------------|---------------------------|
|-------------------------|---------------------------|
|
| E E E Q E E E E E E Q E E E E E E E
|-------------------------|---------------------------|
|--7--0-0-7--0---8h10-7-7-|---0--7---0-5-0---7h8-10-7-|
|-------------------------|---------------------------|
|-------------------------|---------------------------|
|-------------------------|---------------------------|
|-------------------------|---------------------------|
|
| E E E Q E E E E E E E E Q E E E E E
|-------------------------|---------------------------|
|-------------------------|---------------------------|
|-------------------------|---------------------------|
|-------------------------|---------------------------|
|--2--2-2-2--2---0--0-5-5-|---2--2-2-2---2---0-0--3-3-|
|-------------------------|---------------------------|
< >
H. +H +H. +H
|-------------------------|--------------------------------|
|-------------------------|--------------------------------|
|-16-----------(16)-------|-(16)-------------(16)----------|
|-------------------------|--------------------------------|
|-------------------------|--------------------------------|
|-------------------------|--------------------------------|
|
| E E E Q E E E E E E Q E E E E E Q
|-------------------------|--------------------9-----9----|
|--7--7-0-7--0---8h10-7-0-|---0--7--------11------11-------|
|-------------------------|----------8s11------------------|
|-------------------------|--------------------------------|
|-------------------------|--------------------------------|
|-------------------------|--------------------------------|
|
| E E E Q E E E E E E E E Q E E E E E
|-------------------------|--------------------------------|
|-------------------------|--------------------------------|
|-------------------------|--------------------------------|
|-------------------------|--------------------------------|
|--2--2-2-2--2---0--0-5-5-|---2--2-2-2-----2---0---0-3--3--|
|-------------------------|--------------------------------|
< >
H. +H +H. +H
|-------------------------|---------------------------|
|-------------------------|---------------------------|
|-14-----------(14)-------|-(14)-----------(14)-------|
|-------------------------|---------------------------|
|-------------------------|---------------------------|
|-------------------------|---------------------------|
|
| E E E Q E E E E E E Q E E E E E E E
|-------------------------|---------------------------|
|--7--0-0-7--0---8h10-7-7-|---0--7---0-5-0---7h8-10-7-|
|-------------------------|---------------------------|
|-------------------------|---------------------------|
|-------------------------|---------------------------|
|-------------------------|---------------------------|
|
| E E E Q E E E E E E E E Q E E E E E
|-------------------------|---------------------------|
|-------------------------|---------------------------|
|-------------------------|---------------------------|
|-------------------------|---------------------------|
|--2--2-2-2--2---0--0-5-5-|---2--2-2-2---2---0-0--3-3-|
|-------------------------|---------------------------|
< >
H. +H +H. +H
|-------------------------|--------------------------------|
|-------------------------|--------------------------------|
|-12-----------(12)-------|-(12)-------------(12)----------|
|-------------------------|--------------------------------|
|-------------------------|--------------------------------|
|-------------------------|--------------------------------|
|
| E E E Q E E E E E E Q E E E E E Q
|-------------------------|--------------------9-----9----|
|--7--7-0-7--0---8h10-7-0-|---0--7--------11------11-------|
|-------------------------|----------8s11------------------|
|-------------------------|--------------------------------|
|-------------------------|--------------------------------|
|-------------------------|--------------------------------|
|
| E E E Q E E E E E E E E Q E E E E E
|-------------------------|--------------------------------|
|-------------------------|--------------------------------|
|-------------------------|--------------------------------|
|-------------------------|--------------------------------|
|--2--2-2-2--2---0--0-5-5-|---2--2-2-2-----2---0---0-3--3--|
|-------------------------|--------------------------------|
Q=200 Q=180
4/4
< >
H +H +H +H
|------------------------|-----------------------|
|------------------------|-----------------------|
|------------------------|-----------------------|
|-14---------(14)--------|-(14)---------(14)-----|
|------------------------|-----------------------|
|------------------------|-----------------------|
|
| E E E Q E E E E E E Q E E E
|------------------------|-----------------------|
|----7-0-0-7------0-8h10-|---7--7-0-7-----0--5-0-|
|------------------------|-----------------------|
|------------------------|-----------------------|
|------------------------|-----------------------|
|------------------------|-----------------------|
|
| E E E E E E E E E E E E E





Ваше мнение



Капча