Look for a more detailed and constant updated version with powertab at
http://www.cynicalsphere.com/
HOW COULD I
As recorded by Cynic
(From the 1993 Album FOCUS)
Words by Paul Masvidal Music by Cynic
Transcribed by Jeff Litvak
Gtr I (E A D G B E) - 'Paul (Distortion)'
Gtr II (E A D G B E) - 'Jason (Distortion)'
Gtr III (E A D G B E) - 'Keyboard'
Gtr IV (D A D G B E) - 'Sean (Bass)'
Gtr V (E A D G B E) - 'Clean Tone'
Gtr VI (E A D G B E) - 'Lead'
Q=220
4/4
Gtr III
E E E E E E E E E E E E E E E E E E E E E E E E E E E E E E E E
||------------------|-----------------|-----------------|------------------||
||o-------6-5-------|-----6-5-----8---|-------6-5-------|-----6-5---------o||
||------------------|-----------------|-----------------|-------------2-2--||
||--0-0-0-3-2-0-0-2-|-2-2-3-2-2-2-5-2-|-3-3-3-3-2-3-3-2-|-2-2-3-2-2-2------||
||o-----------------|-----------------|-----------------|-----------------o||
||------------------|-----------------|-----------------|------------------||
Gtr IV
W +H H W W
|-----------------|--------------------|------------------|------------------|
|-----------------|--------------------|------------------|------------------|
|-----------------|--------------------|------------------|------------------|
|-0---------------|-(0)-------10-------|-10---------------|--8---------------|
|-0---------------|-(0)--------7-------|--8---------------|-10---------------|
|-----------------|--------------------|------------------|------------------|
|
| Gtr III
| E E E E E E E E E E E E E E E E E E E E E E E E E E E E E E E E
|-----------------|--------------------|------------------|------------------|
|-------6-5-------|-------6-5------8---|--------6-5-------|------6-5---------|
|-----------------|--------------------|------------------|--------------2-2-|
|-0-0-0-3-2-0-0-2-|--2--2-3-2--2-2-5-2-|--3-3-3-3-2-3-3-2-|--2-2-3-2-2-2-----|
|-----------------|--------------------|------------------|------------------|
|-----------------|--------------------|------------------|------------------|
W +H H W W
|-----------------|--------------------|------------------|------------------|
|-----------------|--------------------|------------------|------------------|
|-----------------|--------------------|------------------|------------------|
|-0---------------|-(0)-------10-------|-10---------------|-11---------------|
|-0---------------|-(0)--------7-------|--8---------------|--0---------------|
|-----------------|--------------------|------------------|------------------|
|
| E E E E E E E E E E E E E E E E E E E E E E E E E E E E E E E E
|-----------------|--------------------|------------------|------------------|
|-------6-5-------|-------6-5------8---|--------6-5-------|------6-5---------|
|-----------------|--------------------|------------------|--------------2-2-|
|-0-0-0-3-2-0-0-2-|--2--2-3-2--2-2-5-2-|--3-3-3-3-2-3-3-2-|--2-2-3-2-2-2-----|
|-----------------|--------------------|------------------|------------------|
|-----------------|--------------------|------------------|------------------|
Gtr V
PM-----------------------------------------------------------------------|
E E E E E E E E E E E E E E E E E E E E E E E E E E E E E E E E
|-----------------|--------------------|------------------|------------------|
|---------6-6-----|--5--5------8-8-----|----------6-6-----|----------5-5-----|
|-----7-7-----7-7-|-------7-7------7-7-|------7-7-----7-7-|------7-7-----7-7-|
|-0-0-------------|--------------------|--5-5-------------|--8-8-------------|
|-----------------|--------------------|------------------|------------------|
|-----------------|--------------------|------------------|------------------|
|
| Gtr IV
| W +H H W W
|-----------------|--------------------|------------------|------------------|
|-----------------|--------------------|------------------|------------------|
|-----------------|--------------------|------------------|------------------|
|-0---------------|-(0)-------10-------|-10---------------|--8---------------|
|-0---------------|-(0)--------7-------|--8---------------|-10---------------|
|-----------------|--------------------|------------------|------------------|
|
| Gtr III
| E E E E E E E E E E E E E E E E E E E E E E E E E E E E E E E E
|-----------------|--------------------|------------------|------------------|
|-------6-5-------|-------6-5------8---|--------6-5-------|------6-5---------|
|-----------------|--------------------|------------------|--------------2-2-|
|-0-0-0-3-2-0-0-2-|--2--2-3-2--2-2-5-2-|--3-3-3-3-2-3-3-2-|--2-2-3-2-2-2-----|
|-----------------|--------------------|------------------|------------------|
|-----------------|--------------------|------------------|------------------|
PM-----------------------------------------------------------------------|
E E E E E E E E E E E E E E E E E E E E E E E E E E E E E E E E
|-----------------|--------------------|------------------|------------------|
|---------6-6-----|--5--5------8-8-----|----------6-6-----|----------5-5-----|
|-----7-7-----7-7-|-------7-7------7-7-|------7-7-----7-7-|------7-7-----7-7-|
|-0-0-------------|--------------------|--5-5-------------|--8-8-------------|
|-----------------|--------------------|------------------|------------------|
|-----------------|--------------------|------------------|------------------|
|
| W +H H W W
|-----------------|--------------------|------------------|------------------|
|-----------------|--------------------|------------------|------------------|
|-----------------|--------------------|------------------|------------------|
|-0---------------|-(0)-------10-------|-10---------------|-11---------------|
|-0---------------|-(0)--------7-------|--8---------------|--0---------------|
|-----------------|--------------------|------------------|------------------|
|
| E E E E E E E E E E E E E E E E E E E E E E E E E E E E E E E E
|-----------------|--------------------|------------------|------------------|
|-------6-5-------|-------6-5------8---|--------6-5-------|------6-5---------|
|-----------------|--------------------|------------------|--------------2-2-|
|-0-0-0-3-2-0-0-2-|--2--2-3-2--2-2-5-2-|--3-3-3-3-2-3-3-2-|--2-2-3-2-2-2-----|
|-----------------|--------------------|------------------|------------------|
|-----------------|--------------------|------------------|------------------|
PM-------------------------------------
E E E E E E E E E E E E E E E E
|-----------------|---------------------|
|-----------------|---------------------|
|-----9-9-9-9-----|-10--10------9-9-----|
|-7-7---------7-7-|--------7-7------7-7-|
|-----------------|---------------------|
|-----------------|---------------------|
|
| W +H H
|-----------------|---------------------|
|-----------------|---------------------|
|-----------------|---------------------|
|-0---------------|-(0)--------10-------|
|-0---------------|-(0)---------7-------|
|-----------------|---------------------|
|
| E E E E E E E E E E E E E E E E
|-----------------|---------------------|
|-------6-5-------|--------6-5------8---|
|-----------------|---------------------|
|-0-0-0-3-2-0-0-2-|--2---2-3-2--2-2-5-2-|
|-----------------|---------------------|
|-----------------|---------------------|
-------------------------------------|
E E E E E E E E E E E E E E E E
|------------------|--------------------|
|------------------|--8-8---------------|
|--9-9-9-9-----9-9-|----------10-10-9-9-|
|----------7-7-----|------7-7-----------|
|------------------|--------------------|
|------------------|--------------------|
|
| W W
|------------------|--------------------|
|------------------|--------------------|
|------------------|--------------------|
|-10---------------|--8-----------------|
|--8---------------|-10-----------------|
|------------------|--------------------|
|
| E E E E E E E E E E E E E E E E
|------------------|--------------------|
|--------6-5-------|------6-5-----------|
|------------------|----------------2-2-|
|--3-3-3-3-2-3-3-2-|--2-2-3-2--2--2-----|
|------------------|--------------------|
|------------------|--------------------|
PM-------------------------------------
E E E E E E E E E E E E E E E E
|-----------------|---------------------|
|-----------------|---------------------|
|-----9-9-9-9-----|-10--10------9-9-----|
|-7-7---------7-7-|--------7-7------7-7-|
|-----------------|---------------------|
|-----------------|---------------------|
|
| W +H H
|-----------------|---------------------|
|-----------------|---------------------|
|-----------------|---------------------|
|-0---------------|-(0)--------10-------|
|-0---------------|-(0)---------7-------|
|-----------------|---------------------|
|
| E E E E E E E E E E E E E E E E
|-----------------|---------------------|
|-------6-5-------|--------6-5------8---|
|-----------------|---------------------|
|-0-0-0-3-2-0-0-2-|--2---2-3-2--2-2-5-2-|
|-----------------|---------------------|
|-----------------|---------------------|
-------------------------------------|
E E E E E E E E E E E E E E E E
|------------------|--------------------||
|------------------|--8-8---------------||
|--9-9-9-9-----9-9-|----------10-10-9-9-||
|----------7-7-----|------7-7-----------||
|------------------|--------------------||
|------------------|--------------------||
|
| W W
|------------------|--------------------||
|------------------|--------------------||
|------------------|--------------------||
|-10---------------|-11-----------------||
|--8---------------|--0-----------------||
|------------------|--------------------||
|
| E E E E E E E E E E E E E E E E
|------------------|--------------------||
|--------6-5-------|------6-5-----------||
|------------------|----------------2-2-||
|--3-3-3-3-2-3-3-2-|--2-2-3-2--2--2-----||
|------------------|--------------------||
|------------------|--------------------||
Gtr I
PM----| PM| PM| PM PM--------| PM----------| PM-|
E E E E E E E E E E E E E E E E E E E E E E E E E E E E E E E E
|-----------------|-----------------|-----------------|------------------|
|---------6-6-----|-5-5-----8-8-----|---------6-6-----|---------5-5------|
|-----7-7-----7-7-|-----7-7-----7-7-|-----7-7-----7-7-|-----7-7-----7--7-|
|-0-0-------------|-----------------|-5-5-------------|-8-8--------------|
|-----------------|-----------------|-----------------|------------------|
|-----------------|-----------------|-----------------|------------------|
|
| Gtr II
| PM| PM----| PM----|
| Q E E Q Q Q Q Q Q E E E E Q Q E E E E Q Q
|-----------------|-----------------|-----------------|------------------|
|---------6---5---|-6---5---8---8---|---------6---5---|---------5--------|
|-7-------7---7---|-7---7---7---7---|---------7---7---|---------7---5---|
|-0---0-0---------|-----------------|-5-5-5-5---------|-8-8-8-8----------|
|-----------------|-----------------|-----------------|------------------|
|-----------------|-----------------|-----------------|------------------|
PM----| PM| PM| PM----------------------------| PM-|
E E E E E E E E E E E E E E E E E E E E E E E E E E E E E E E E
|-----------------|-----------------|-----------------|------------------|
|---------6-6-----|-5-5-----8-8-----|-----------------|---------5-5------|
|-----7-7-----7-7-|-----7-7-----7-7-|-----7-7-----7-7-|-----7-7-----7--7-|
|-0-0-------------|-----------------|-0-0-----5-5-----|-8-8--------------|
|-----------------|-----------------|-----------------|------------------|
|-----------------|-----------------|-----------------|------------------|
|
| PM| PM----| PM----|
| Q E E Q Q Q Q Q Q E E E E Q Q E E E E Q Q
|-----------------|-----------------|-----------------|------------------|
|---------6---5---|-6---5---8---8---|---------6---5---|---------5--------|
|-7-------7---7---|-7---7---7---7---|---------7---7---|---------7---5---|
|-0---0-0---------|-----------------|-5-5-5-5---------|-8-8-8-8----------|
|-----------------|-----------------|-----------------|------------------|
|-----------------|-----------------|-----------------|------------------|
PM| PM| PM| PM| PM| PM|
E E E E E E E E E E E E E E E E E E E E E E E E E E E E E E E E
|-----------------|--------------------|-----------------|---------------------|
|-----------------|--------------------|-----------------|--8--8---------------|
|-----9-9-9-9-----|-10--10-----9-9-----|-9-9-9-9-----9-9-|-----------10-10-9-9-|
|-7-7---------7-7-|--------7-7-----7-7-|---------7-7-----|-------7-7-----------|
|-----------------|--------------------|-----------------|---------------------|
|-----------------|--------------------|-----------------|---------------------|
|
| PM----| PM----|
| Q E E H +W Q E E H +W
|-----------------|--------------------|-----------------|---------------------|
|-----------------|--------------------|-----------------|---------------------|
|-----------------|--------------------|-----------------|---------------------|
|---------7-------|-(7)----------------|---------3-------|-(3)-----------------|
|---------7-------|-(7)----------------|---------3-------|-(3)-----------------|
|-5---5-5-5-------|-(5)----------------|-1---1-1-1-------|-(1)-----------------|
PM| PM| PM| PM| ~
E E E E E E E E E E E E E E E E a Q Q Q Q Q Q H
|-----------------|--------------------|--------------------|---------------||
|-----------------|--------------------|-------10-----------|---------------||
|-----9-9-9-9-----|-10--10-----9-9-----|-----------10-------|---------------||
|-7-7---------7-7-|--------7-7-----7-7-|-7s10----------12--|------10--9----||
|-----------------|--------------------|--------------------|-/10-----------||
|-----------------|--------------------|--------------------|---------------||
|
| PM----| PM PM ~
| Q E E H +W Q Q Q Q Q Q H
|-----------------|--------------------|--------------------|---------------||
|-----------------|--------------------|--------------------|---------------||
|---------3-------|-(3)----------------|--------7-----------|---------------||
|---------3-------|-(3)----------------|------------8-------|---------------||
|-1---1-1-1-------|-(1)----------------|----8----------10---|-------8--7----||
|-----------------|--------------------|--------------------|---8-----------||
Q=162
Gtr I
PM-----------| PM PM-----------| PM|
E S S S S S S E E E E E S S S S S S E E S S E
||-----------------------------|------------------------------|
||o----------------------------|------------------------------|
||-----------------7-----------|-----------------5------------|
||--6-----------------6-----6--|--------------------5---------|
||o----5-5-5-5-5-5-------5-----|--8--8-8-8-8-8-8-------8-8-6--|
||-----------------------------|------------------------------|
|
| Gtr II
| PM-----------| PM PM-----------| PM|
| E S S S S S S E E E E E S S S S S S E E S S E
||-----------------------------|------------------------------|
||o----------------------------|------------------------------|
||-----------------7-----------|-----------------5------------|
||--6-----------------6-----6--|--------------------5------5--|
||o----5-5-5-5-5-5-------5-----|--8--8-8-8-8-8-8-------8-8----|
||-----------------------------|------------------------------|
PM------------| PM-----------|
S S S S S S S S E E E E E S S S S S S E E E E
|------------------------------|----------------------------|
|------------------------------|-----------------6p=5-------|
|------------------7h=8--7p=5--|-----------------------5p=0-|
|------------------------------|----------------------------|
|--6-6-6-6-6-6-6-6-------------|--7--7-7-7-7-7-7------------|
|------------------------------|----------------------------|
|
| PM------------| PM-----------|
| S S S S S S S S E E E E E S S S S S S E E E E
|------------------------------|----------------------------|
|------------------------------|-----------------6p=5-------|
|------------------7h=8--7p=5--|-----------------------5p=0-|
|------------------------------|----------------------------|
|--6-6-6-6-6-6-6-6-------------|--7--7-7-7-7-7-7------------|
|------------------------------|----------------------------|
PM PM PM PM-------------------|
E E E E E E E E S S S S E S S S S S S E E
|---------------------------------|------------------------------|
|---------------------------------|------------------------------|
|-----7--------7------------------|------------------------------|
|-----------------7-----------5---|------------8-8-7-7-8-8-7--5--|
|-10------10----------8---5-------|-6-6-6-6-6--------------------|
|---------------------------------|------------------------------|
|
| PM-----| PM-------------------------------------|
| E S S S S E S S S S S S S S S S S S E S S E S S E E
|---------------------------------|------------------------------|
|---------------------------------|------------------------------|
|--5-----------7------------------|------------------------------|
|---------------------------------|------------------------------|
|--3--3-3--3-3-5------------------|------------6-6-5---6-6-5--3--|
|-----------------6-6-6-6-3-3-3-3-|-4-4-4-4-4--------------------|
PM PM PM PM---------------|
E E E E E E E E S S S S E E E E Q
|----------------------------------|---------------------------||
|----------------------------------|---------------------6----o||
|------7--------7------------------|---------------------5-----||
|------------------7-----------5---|------------8--7--5--7-----||
|--10------10----------8---5-------|-7-7-7-7-7----------------o||
|----------------------------------|---------------------------||
|
| PM-----| PM---------------------------------|
| E S S S S E S S S S S S S S S S S S E E E E Q
|----------------------------------|---------------------------||
|----------------------------------|---------------------6----o||
|---5-----------7------------------|---------------------5-----||
|----------------------------------|---------------------7-----||
|---3--3-3--3-3-5------------------|------------6--5--3-------o||
|------------------6-6-6-6-3-3-3-3-|-5-5-5-5-5-----------------||
Gtr I
PM-----------|
E S S S S S S H
|-------------------------|
|----------------6--------|
|----------------5--------|
|----------------5--------|
|----------------8--------|
|-7--7-7-7-7-7-7-7--------|
|
| Gtr II
| PM-----------|
| E S S S S S S H
|-------------------------|
|----------------6--------|
|----------------5--------|
|----------------5--------|
|----------------8--------|
|-7--7-7-7-7-7-7-7--------|
PM--------| PM----| PM-------| PM------|
E S S S S S S E S S S S E E E E E E E E S S
|------------------------------|--------------------------|
|------------------------------|-------------5------------|
|------------------------------|-------5--------5---------|
|------------------------------|----9-----9--------9--9-9-|
|----------------7----------7--|--------------------------|
|-4--4-4-4-4-4-4-4--4-4-4-4-4--|-5------------------------|
|
| PM--------| PM----| PM-------| PM------|
| E S S S S S S E S S S S E E E E E E E E S S
|------------------------------|--------------------------|
|------------------------------|--------------------------|
|------------------------------|--------------------------|
|------------------------------|-7-----7-----7-----7------|
|----------------7----------7--|----7-----7-----7-----7-7-|
|-4--4-4-4-4-4-4-4--4-4-4-4-4--|--------------------------|
PM-------| PM-|
E E E E E E E E H Q Q
|-------------5-----------|------------------------|
|----------5-----5--------|--5-----------6----5----|
|----5--------------5-----|--4---------------------|
|-9-----9--------------7--|--6-----------3----2----|
|-------------------------|--6---------------------|
|-------------------------|--4---------------------|
|
| PM-------| ~ PM--|
| E E E E E E Q Q E S S Q Q
|-------------------------|------------------------|
|-0-----0-----------------|--------------6p===5----|
|-------------------------|--4--x-x-x----5---------|
|-------------7-----------|-----x-x-x--------------|
|----7-----7-----7--------|--2--x-x-x--------------|
|-------------------5-----|------------------------|
PM ~
E E E E Q E E
|-----------------------------||
|-----------------------------||
|----4-----------9------7---5-||
|-7------7---6----------------||
|----------------7------5---3-||
|-----------------------------||
|
| PM--------| PM----|
| E S S S S S S E S S S S E
|-----------------------------||
|-----------------------------||
|-----------------------------||
|-----------------------------||
|----------------7----------7-||
|-4--4-4-4-4-4-4-4--4-4-4-4-4-||
Gtr V
E E E E E E E E E E E E E E E E
|---------------------------|---------------------------4--|
|----------5----------------|-----------------------5------|
|-------5-----5-------5-----|-------5------6-----6---------|
|----9-----------9-------9--|------------------------------|
|---------------------------|------------------------------|
|-5-------------------------|--8-------5------4------------|
|
| Gtr II
| PM| PM|
| E E H. S S E S S E E Q.
|---------------------------|------------------------------|
|---------------------------|------------------------------|
|---------------------------|------------------------------|
|-7-------------------------|------10------7--6------------|
|-7-------------------------|------10------7--6------------|
|-5-------------------------|--8-8--8--5-5-5--4------------|
E E E E E E E E E E E E E E E E
|-------------------8---------|--------------------------|
|--5-------------9-----9------|-----------5--------------|
|-----6------10-----------10--|--------5-----5-----5-----|
|-----------------------------|-----9-----------9-----9--|
|-----------------------------|--------------------------|
|---------8-------------------|--5-----------------------|
|
| Q E E H W
|-----------------------------|--------------------------|
|-----------------------------|--5-----------------------|
|-----------------------------|--5-----------------------|
|--------10-------------------|--7-----------------------|
|--------10-------------------|--7-----------------------|
|---------8-------------------|--5-----------------------|
Gtr I
E E E E E E E E E E E E E E E E
|-------------------------4--|---------------------8----------|
|----------------------5-----|--5--------------9-------9------|
|------5------6-----6--------|-----6------10--------------10--|
|----------------------------|--------------------------------|
|----------------------------|--------------------------------|
|-8-------5------4-----------|---------8----------------------|
|
| PM| PM| ~ PM--------------------------------------
| S S E S S E Q E E E E E E E E E E
|----------------------------|--------------------------------|
|----------------------------|--------------------------------|
|----------------------------|--------------------------------|
|-----10------7--6-----------|--------------------------------|
|-----10------7--6-----6--6--|--6--6--10--10--10--10--10--10--|
|-8-8--8--5-5-5--4-----4--4--|--4--4---8---8---8---8---8---8--|
PM---| PM----| PM------------------------------|
E S S E S S S S E S S S S S S S S S S S S E Q.
|---------------------------------|--------------------------------------||
|---------------------------------|--------------------------------------||
|---------10----------10----------|--------------------------10----------||
|---------11----------11----------|---------------------------9----------||
|---------------------------------|--------------------------------------||
|--9--9-9-----9-9-9-9-----9-9-9-9-|--10-10-10-10-10-10-10-10-------------||
|
|-------| PM----| PM------------------------------|
| E S S E S S S S E S S S S S S S S S S S S E Q.
|---------------------------------|--------------------------------------||
|---------------------------------|--------------------------------------||
|---------10----------10----------|--------------------------10----------||
|---------11----------11----------|---------------------------9----------||
|---------------------------------|--------------------------------------||
|--9--9-9-----9-9-9-9-----9-9-9-9-|--10-10-10-10-10-10-10-10-------------||
Gtrs I, II
PM-----------| PM PM-----------|
E S S S S S S E E E E E S S S S S S E E E E
|----------------------------|-----------------------------|
|----------------------------|-----------------------------|
|----------------7-----------|-----------------5-----------|
|-6-----------------6-----6--|--------------------5-----5--|
|----5-5-5-5-5-5-------5-----|--8--8-8-8-8-8-8-------8-----|
|----------------------------|-----------------------------|
PM------------| PM-----------|
S S S S S S S S E E E E E S S S S S S E E E E
|------------------------------|-----------------------------|
|------------------------------|-----------------6p=5--------|
|------------------7h=8--7p=5--|-----------------------5p=0--|
|------------------------------|-----------------------------|
|--6-6-6-6-6-6-6-6-------------|--7--7-7-7-7-7-7-------------|
|------------------------------|-----------------------------|
Gtr I
PM-----------| PM PM-----------|
E S S S S S S E E E E E S S S S S S E E E E
|------------------------------|-----------------------------|
|------------------------------|-----------------------------|
|----------------7-------------|-----------------5-----------|
|-6-----------------6------6---|--------------------5-----5--|
|----5-5-5-5-5-5-------5-------|--8--8-8-8-8-8-8-------8-----|
|------------------------------|-----------------------------|
|
| Gtr II
| PM-----------| PM----------------------|
| E S S S S S S E E S S S S E S S S S S S E E E E
|------------------------------|-----------------------------|
|------------------------------|-----------------------------|
|----------------7-------------|-----------------5-----------|
|-6-----------------6----------|--------------------5--5--5--|
|----5-5-5-5-5-5-------5-5-5-5-|--8--8-8-8-8-8-8-------8--6--|
|------------------------------|-----------------------------|
PM------------| PM-----------|
S S S S S S S S E E E E E S S S S S S E E E E
|------------------------------|-----------------------------|
|------------------------------|-----------------6p=5--------|
|------------------7h=8--7p=5--|-----------------------5p=0--|
|------------------------------|-----------------------------|
|--6-6-6-6-6-6-6-6-------------|--7--7-7-7-7-7-7-------------|
|------------------------------|-----------------------------|
|
| PM------------| PM-----------|
| S S S S S S S S E E E E E S S S S S S E E E E
|------------------------------|-----------------------------|
|------------------------------|-----------------6p=5--------|
|------------------7--8--7--5--|-----------------5-----5p=0--|
|------------------5--5--5--5--|-----------------------------|
|--6-6-6-6-6-6-6-6-------------|--7--7-7-7-7-7-7-------------|
|------------------------------|-----------------------------|
PM PM PM PM-------------------|
E E E E E E E E S S S S E S S S S S S E E
|---------------------------------|-------------------------------|
|---------------------------------|-------------------------------|
|-----7--------7------------------|-------------------------------|
|-----------------7-----------5---|-------------8-8-7-7-8-8-7--5--|
|-10------10----------8---5-------|--6-6-6-6-6--------------------|
|---------------------------------|-------------------------------|
|
| PM-----| PM--------------------------------------|
| E S S S S E S S S S S S S S S S S S E S S E S S E E
|---------------------------------|-------------------------------|
|---------------------------------|-------------------------------|
|--5-----------7------------------|-------------------------------|
|---------------------------------|-------------------------------|
|--3--3-3--3-3-5------------------|-------------6-6-5---6-6-5--3--|
|-----------------6-6-6-6-3-3-3-3-|--4-4-4-4-4--------------------|
PM PM PM PM---------------|
E E E E E E E E S S S S E E E E Q
|----------------------------------|---------------------------||
|----------------------------------|----------------------6----||
|------7--------7------------------|----------------------5----||
|------------------7-----------5---|-------------8--7--5--7----||
|--10------10----------8---5-------|--7-7-7-7-7----------------||
|----------------------------------|---------------------------||
|
| PM-----| PM----------------------------------|
| E S S S S E S S S S S S S S S S S S E E E E Q
|----------------------------------|---------------------------||
|----------------------------------|----------------------6----||
|---5-----------7------------------|----------------------5----||
|----------------------------------|----------------------7----||
|---3--3-3--3-3-5------------------|-------------6--5--3-------||
|------------------6-6-6-6-3-3-3-3-|--5-5-5-5-5----------------||
Q=155
Gtr I
PM PM PM ~~ PM----------| PM PM ~~ PM--|
E E E E E E E E Q. E E E E E E E E E E E E E Q. E E E Q
|--------------------|----------------|--------------------|---------------||
|--------------------|----------------|--------------------|------------6--||
|-------7------7-----|----------------|-------7------7-----|------------5--||
|-----7------7-----5-|------8-7-8-7-5-|-----7------7-----5-|------8-7-5-7--||
|-10------8------5---|-6--------------|-10------8------5---|-7-------------||
|--------------------|----------------|--------------------|---------------||
|
| Gtr II
| PM------| PM--|
| Q. Q. Q Q. E E E E E Q. Q. Q Q. E E E Q
|--------------------|----------------|--------------------|---------------||
|--------------------|----------------|--------------------|------------6--||
|--------------------|----------------|--------------------|------------5--||
|-10------8------5---|-6--------------|-10------8------5---|-7----------7--||
|-10------8------5---|-6----6-5-6-5-3-|-10------8------5---|-7----6-5-3----||
|--8------6------3---|-4--------------|--8------6------3---|-5-------------||
Q=162
Gtr I
PM-----------| PM--------| PM----|
E S S S S S S H E S S S S S S E S S S S E
|-------------------------|-------------------------------|
|----------------6--------|-------------------------------|
|----------------5--------|-------------------------------|
|----------------5--------|-------------------------------|
|----------------8--------|-----------------7----------7--|
|-7--7-7-7-7-7-7-7--------|--4--4-4-4-4-4-4-4--4-4-4-4-4--|
|
| Gtr II
| PM-----------| PM--------| PM----|
| E S S S S S S H E S S S S S S E S S S S E
|-------------------------|-------------------------------|
|----------------6--------|-------------------------------|
|----------------5--------|-------------------------------|
|----------------5--------|-------------------------------|
|----------------8--------|-----------------7----------7--|
|-7--7-7-7-7-7-7-7--------|--4--4-4-4-4-4-4-4--4-4-4-4-4--|
Gtr V
E E E E E E E E E E E E E E E E
|---------------------------|---------------------------4--|
|------------5--------------|------------------------5-----|
|--------5------5-----5-----|-------5------6-----6---------|
|-----9------------9-----9--|------------------------------|
|---------------------------|------------------------------|
|--5------------------------|--8-------5------4------------|
|
| PM| PM|
| E E H. S S E S S E E Q.
|---------------------------|------------------------------|
|---------------------------|------------------------------|
|---------------------------|------------------------------|
|--7------------------------|------10------7--6------------|
|--7------------------------|------10------7--6------------|
|--5------------------------|--8-8--8--5-5-5--4------------|
E E E E E E E E E E E E E E E E
|------------------8---------|--------------------------|
|-5-------------9-----9------|-----------5--------------|
|----6------10-----------10--|--------5-----5-----5-----|
|----------------------------|-----9-----------9-----9--|
|----------------------------|--------------------------|
|--------8-------------------|--5-----------------------|
|
| Q E E H W
|----------------------------|--------------------------|
|----------------------------|--5-----------------------|
|----------------------------|--5-----------------------|
|-------10-------------------|--7-----------------------|
|-------10-------------------|--7-----------------------|
|--------8-------------------|--5-----------------------|
Gtr I
E E E E E E E E E E E E E E E E
|--------------------------4--|---------------------8----------||
|-----------------------5-----|--5--------------9-------9------||
|-------5------6-----6--------|-----6------10--------------10--||
|-----------------------------|--------------------------------||
|-----------------------------|--------------------------------||
|--8-------5------4-----------|---------8----------------------||
|
| PM| PM| ~ PM---------------------------------|
| S S E S S E Q E E E E E E E E E E
|-----------------------------|--------------------------------||
|-----------------------------|--------------------------------||
|-----------------------------|--------------------------------||
|------10------7--6-----------|--------------------------------||
|------10------7--6-----6--6--|--6--6--10--10--10--10--10--10--||
|--8-8--8--5-5-5--4-----4--4--|--4--4---8---8---8---8---8---8--||
Q=150
Gtr I
PM PM| PM| PM
E E E E E E E E S S E S S E E E E E
|-------------------------|------------------------4-|
|----------5--------------|---------------------5----|
|-------5-----5-----5-----|------------------6-------|
|----9-----------9------9-|--------------------------|
|-------------------------|-----5------5-------------|
|-5-----------------------|-5-5-8--5-5-5--4----------|
|
| Gtr II
| PM-| PM PM PM PM PM-|
| E E E E E E E E E E E E E E E E
|-------------------------|--------------------------|
|-------------------------|--------------------------|
|-------------------------|--------------------------|
|-------9-----7--------10-|-9-------------------6----|
|----7-----------7--------|-----9------9-----6-------|
|-5--------5--------8-----|--------7------4--------4-|
PM
E E E E E E E E
|------------------8---------|
|-5-------------9------9-----|
|----6-----10-------------10-|
|----------------------------|
|----------------------------|
|-------8--------------------|
|
| PM-|
| E E E E E E E E
|----------------------------|
|----------------------------|
|----------------------------|
|-6------------10-----10-----|
|----6-----10-------------10-|
|-------8----------8---------|
PM
E E E E E E E E
|-----------------------------|
|-----------5-----------------|
|--------5------5------5------|
|----9-------------9--------9-|
|-----------------------------|
|-5---------------------------|
|
| PM---| PM| PM----|
| E S S E S S E S S S S E
|-----------------------------|
|-----------------------------|
|-----------------------------|
|--------9------7----------10-|
|--------7------7-------------|
|-5--5-5-5--5-5-5--5-5-8-8----|
PM| PM| PM PM
S S E S S E E E E E E E E E E E E E
|------------------------4-|------------------8---------|
|---------------------5----|-5-------------9------9-----|
|------------------6-------|----6-----10-------------10-|
|--------------------------|----------------------------|
|-----5------5-------------|----------------------------|
|-5-5-8--5-5-5--4----------|-------8--------------------|
|
| PM PM PM-| PM-|
| E E E E E E E E E E E E E E E E
|--------------------------|----------------------------|
|--------------------------|----------------------------|
|--------------------------|----------------------------|
|-9-------------------6----|-6------------10-----10-----|
|-----9------9-----6-------|----6-----10-------------10-|
|--------7------4--------4-|-------8----------8---------|
PM PM| PM| PM
E E E E E E E E S S E S S E E E E E
|------------------------------|-------------------------4--|
|-----------5------------------|----------------------5-----|
|--------5------5------5-------|------------------6---------|
|----9-------------9--------9--|----------------------------|
|------------------------------|-----5------5---------------|
|-5----------------------------|-5-5-8--5-5-5--4------------|
|
| PM---| PM| PM----| PM PM PM---|
| E S S E S S E S S S S E E E E E E S S Q
|------------------------------|----------------------------|
|------------------------------|----------------------------|
|------------------------------|----------------------4-----|
|--------9------7----------10--|-9--------------------6-----|
|--------7------7--------------|-----9------9---------6-----|
|-5--5-5-5--5-5-5--5-5-8-8-----|--------7------4--4-4-4-----|
PM
E E E E E E E E
|----------------------8--------||
|---5---------------9-----9-----||
|-------6-----10-------------10-||
|-------------------------------||
|-------------------------------||
|----------8--------------------||
|
| PM----|
| +Q E S S H
|-------------------------------||
|-------------------------------||
|--(4)--------------8-----------||
|--(6)-------------10-----------||
|--(6)-------------10-----------||
|--(4)-----8---8-8--8-----------||
Q=162
Gtrs I, II
PM---| PM----| PM-----------------------------| PM----------------
E S S E S S S S E S S S S S S S S S S S S E S S S S S S
|--------------------------------|-----------------------------------------------|
|--------------------------------|-----------------------------------------------|
|--------10----------10----------|-------------------------10--------------------|
|--------11----------11----------|--------------------------9--------------------|
|--------------------------------|-----------------------------------------------|
|-9--9-9-----9-9-9-9-----9-9-9-9-|-10-10-10-10-10-10-10-10-----10-10-10-10-10-10-|
--------| PM------| PM------|
E S S E S S S S E S S S S
|-------------------------------------------||
|-------------------------------------------||
|-----------12--------------12--------------||
|-----------13--------------13--------------||
|-------------------------------------------||
|-11--11-11-----11-11-11-11-----11-11-11-11-||
Q=220
Gtr I
W +W
|------------------|---------------------|
|------------------|---------------------|
|------------------|---------------------|
|------------------|---------------------|
|-14---------------|-(14)----------------|
|--0---------------|--(0)----------------|
|
| Gtr II
| W +W
|------------------|---------------------|
|------------------|---------------------|
|------------------|---------------------|
|------------------|---------------------|
|-14---------------|-(14)----------------|
|--0---------------|--(0)----------------|
|
| Gtr III
| E E E E E E E E E E E E E E E E
|------------------|---------------------|
|--------8-7-------|--------8-7-----10---|
|------------------|---------------------|
|--2-2-2-5-4-2-2-4-|---4--4-5-4-4-4--7-4-|
|------------------|---------------------|
|------------------|---------------------|
+H. +E E Q E Q E E E
|------------------------|-----------------------||
|------------------------|---------------7h=8h10-||
|------------------------|-------7h=9------------||
|----------------------7h|==9--------------------||
|-(14)---------(14)------|-----------------------||
|--(0)----------(0)------|-----------------------||
|
| +H. +E E Q E Q E E E
|------------------------|-----------------------||
|------------------------|--------------12h15h17-||
|------------------------|------12h14------------||
|---------------------12h|=14--------------------||
|-(14)---------(14)------|-----------------------||
|--(0)----------(0)------|-----------------------||
|
| E E E E E E E E E E E E E E E E
|------------------------|-----------------------||
|----------8-7-----------|-------8--7------------||
|------------------------|------------------4--4-||
|---5--5-5-5-4---5--5--4-|--4-4--5--4-4--4-------||
|------------------------|-----------------------||
|------------------------|-----------------------||
Gtr VI
1/ 1/ 1/ 1.5__________________
~~
H +Q. +E +E. +S H.
|--7-----------(7)b8---------(7)---|---(7)-----(7)p=5--------------------|
|----------------------------------|-------------------------------------|
|----------------------------------|-------------------------------------|
|----------------------------------|-------------------------------------|
|----------------------------------|-------------------------------------|
|----------------------------------|-------------------------------------|
|
| Gtr I
| 1/ 1/ 1/ 1.5__________________
| ~~
| H +Q. +E +E. +S H.
|-14----------(14)b15-------(14)---|--(14)----(14)p12--------------------|
|----------------------------------|-------------------------------------|
|----------------------------------|-------------------------------------|
|----------------------------------|-------------------------------------|
|----------------------------------|-------------------------------------|
|----------------------------------|-------------------------------------|
|
| Gtr IV
| Q e E e Q E e E e Q E e E
|----------------------------------|-------------------------------------|
|----------------------------------|-------------------------------------|
|----------------------------------|-------------------------------------|
|----------------------------------|-------------------------------------|
|-------5-------5------------------|----5-----------5--------------5-----|
|--0-------0-----------0------0----|--------0--------------0----0-----5--|
|----5:3----|
H E E E E E E E. S E E S E. E E
|----------------------------7h10h|==12-----10p=7-------------------------|
|-------------------------8-------|-----------------7--10h12-----10p==7--|
|----------------------9----------|---------------------------------------|
|------------------11-------------|---------------------------------------|
|---------------------------------|---------------------------------------|
|---------------------------------|---------------------------------------|
|
| |----5:3----|
| H E E E E E E E. S E E S E. E E
|---------------------------12h15h|==18-----15p12-------------------------|
|------------------------14-------|----------------12--15h17-----15p=12--|
|---------------------15----------|---------------------------------------|
|------------------17-------------|---------------------------------------|
|---------------------------------|---------------------------------------|
|---------------------------------|---------------------------------------|
|
| Q. E e E e E +E E e e e e E E
|---------------------------------|---------------------------------------|
|---------------------------------|---------------------------------------|
|---------------------------------|---------------------------------------|
|---------------------------------|---------------------------------------|
|---------------------------------|---------------------3-----3-----------|
|--8-------5--8--5-----7-----3----|--(3)--3-----5---5-------------5---7---|
1/
Q. +E +E E Q +E. +S Q. +E Q
|------------------------------------|---------------------------------------|
|------------------------------------|---------------------------------------|
|--9--------(9)b11r==(9)p==7---------|---------------------------------------|
|------------------------------9-----|---(9)-----(9)p7-------(7)------------|
|------------------------------------|------------------------------/9-------|
|------------------------------------|---------------------------------------|
|
| 1/
| Q. +E +E E Q +E. +S Q. +E Q
|------------------------------------|---------------------------------------|
|------------------------------------|---------------------------------------|
|-12-------(12)b14r=(12)p=10---------|---------------------------------------|
|-----------------------------11-----|--(11)----(11)p9-------(9)------------|
|------------------------------------|-----------------------------/12-------|
|------------------------------------|---------------------------------------|
|
| H e Q e e e e Q e Q
|------------------------------------|---------------------------------------|
|------------------------------------|---------------------------------------|
|------------------------------------|---------------------------------------|
|------------------------------------|---------------------------------------|
|------------------------------------|---------------------------------------|
|--8------------------7----7------7--|----5---5------5----3----------3--3----|
+E. +S H +E E +H +Q Q
|---------------------------------------|----------------------------------|
|---------------------------------------|----------------------------------|
|----------------------------------[7]--|---(7)b9r============(7)----------|
|---------------------------------------|----------------------------------|
|---(9)----(9)p=7------------(7)--------|----------------------------------|
|---------------------------------------|----------------------------------|
|
| ~~
| +E. +S H +E E +H +Q Q
|---------------------------------------|----------------------------------|
|---------------------------------------|----------------------------------|
|---------------------------------[12]--|--(12)b14r==========(12)----------|
|---------------------------------------|----------------------------------|
|--(12)---(12)-12-----------(12)--------|----------------------------------|
|---------------------------------------|----------------------------------|
|
| Q. e e Q e e e e Q e Q
|---------------------------------------|----------------------------------|
|---------------------------------------|----------------------------------|
|---------------------------------------|----------------------------------|
|---------------------------------------|----------------------------------|
|---------------------------------------|----------------------------------|
|----7-------------7--5--5----------5---|----3------3--3--2--------2--2----|
|---3---| |--3---| |-----5:3-----|
S S S S S Q +S S S S S S S +E E E E E E E E E E E E
|----------12h15h17------(17)----------12h15h17-|--(17)p=15p12----------------------------------|
|-----------------------------------------------|----------------17p12-15--17-15p12-------------|
|-12h15h17--------------------12h15h17----------|-----------------------------------------------|
|-----------------------------------------------|-------------------------------------17p15p12--|
|-----------------------------------------------|-----------------------------------------------|
|-----------------------------------------------|-----------------------------------------------|
|
| |---3---| |--3---| |-----5:3-----|
| S S S S S Q +S S S S S S S +E E E E E E E E E E E E
|----------17h20h22------(22)----------17h20h22-|--(22)p=20p17----------------------------------|
|-----------------------------------------------|----------------22p17-20--22-20p17-------------|
|-17h20h22--------------------17h20h22----------|-----------------------------------------------|
|-----------------------------------------------|-------------------------------------22p19p17--|
|-----------------------------------------------|-----------------------------------------------|
|-----------------------------------------------|-----------------------------------------------|
|
| Q e E e Q E e E e Q E e E
|-----------------------------------------------|-----------------------------------------------|
|-----------------------------------------------|-----------------------------------------------|
|-----------------------------------------------|-----------------------------------------------|
|-----------------------------------------------|-----------------------------------------------|
|--------------5-------5------------------------|----5---------5--------------------------------|
|--0----------------0----------0-----------0----|---------0----------0---------0----8-----5-----|
~~
S S S S S S S S Q E E H H
|-----------------------------------------|------------------------------|
|--------------------12h15h17-----15p=12--|------------------------------|
|-----------------------------------------|--16b17r==========14----------|
|-----------12h15h17----------------------|------------------------------|
|--12h15h17-------------------------------|------------------------------|
|-----------------------------------------|------------------------------|
|
| ~~
| S S S S S S S S Q E E H H
|--------------------12h15h17-----15p=12--|------------------------------|
|-----------------------------------------|--16b17r==========14----------|
|-----------12h15h17----------------------|------------------------------|
|--12h15h17-------------------------------|------------------------------|
|-----------------------------------------|------------------------------|
|-----------------------------------------|------------------------------|
|
| Q e E e E e E +E E e E e e E E
|-----------------------------------------|------------------------------|
|-----------------------------------------|------------------------------|
|-----------------------------------------|------------------------------|
|-----------------------------------------|------------------------------|
|-----------------------------------------|------------3------3--3-------|
|---5-----------8-----0-----7--5---7---3--|--(3)----3-----3---------5--7-|
~~
E S S E E E E E E +E E Q E E Q
|----------------------------------|---------------------------19-----|
|------------------------------16--|--(16)------17-----19h=20---------|
|-------------------14-----12------|--------14------------------------|
|-----------14--12-----------------|----------------------------------|
|-----12h14------------------------|----------------------------------|
|----------------------------------|----------------------------------|
|
|----------------------------------------------------------------------
| E S S E E E E E E +E E Q E E Q
|----------------------------------|----------------------------------|
|----------------------------------|---------------------------22-----|
|------------------------------17--|--(17)------18-----20h=21---------|
|-------------------16-----14------|--------16------------------------|
|-----------16--14-----------------|----------------------------------|
|-----12h14------------------------|----------------------------------|
|
| Q. E e Q e e e e Q e E E
|----------------------------------|----------------------------------|
|----------------------------------|----------------------------------|
|----------------------------------|----------------------------------|
|----------------------------------|----------------------------------|
|----------------------------------|----------------------------------|
|-8--------------8---8--7-------7--|----5----5---5--3-------3---3--5--|
~~
|---3----|
E. T T E E Q E E E H H
|-------------17h=19--21-----21p=19p==17--|---22b24------------22------------||
|----------18-----------------------------|----------------------------------||
|-------19--------------------------------|----------------------------------||
|-----------------------------------------|----------------------------------||
|-----------------------------------------|----------------------------------||
|-----------------------------------------|----------------------------------||
|
|-----------------------------------------------------------------------|
| |---3----|
| E. T T E E Q E E E H H
|-----------------------------------------|----------------------------------||
|-------------17h=19--22-----20p=17-------|---22b24------------22------------||
|----------18-------------------------21--|----------------------------------||
|-------19--------------------------------|---------------------2---2---2----||
|-----------------------------------------|---------------------2---2---2----||
|-----------------------------------------|---------------------0---0---0----||
| H Q Q Q
| |---3---|
|
| |---3---|
| Q. e e Q e e e e E Q Q Q
|-----------------------------------------|----------------------------------||
|-----------------------------------------|----------------------------------||
|-----------------------------------------|----------------------------------||
|-----------------------------------------|----------------------------------||
|-----------------------------------------|----------------------------------||
|--7---------------7---7--5---------5-----|----3-----3--3--2----2---2---2----||
Q=162
Gtr I
PM-----------|
E S S S S S S H
|-------------------------|
|----------------6--------|
|----------------5--------|
|----------------5--------|
|----------------8--------|
|-7--7-7-7-7-7-7-7--------|
|
| Gtr II
| PM-----------|
| E S S S S S S H
|-------------------------|
|----------------6--------|
|----------------5--------|
|----------------5--------|
|----------------8--------|
|-7--7-7-7-7-7-7-7--------|
PM--------| PM----| PM-------| PM------|
E S S S S S S E S S S S E E E E E E E E S S
|------------------------------|--------------------------|
|------------------------------|-------------5------------|
|------------------------------|-------5--------5---------|
|------------------------------|----9-----9--------9--9-9-|
|----------------7----------7--|--------------------------|
|-4--4-4-4-4-4-4-4--4-4-4-4-4--|-5------------------------|
|
| PM--------| PM----| PM-------| PM------|
| E S S S S S S E S S S S E E E E E E E E S S
|------------------------------|--------------------------|
|------------------------------|--------------------------|
|------------------------------|--------------------------|
|------------------------------|-7-----7-----7-----7------|
|----------------7----------7--|----7-----7-----7-----7-7-|
|-4--4-4-4-4-4-4-4--4-4-4-4-4--|--------------------------|
PM-------| PM-|
E E E E E E E E H Q Q
|-------------5----------|-----------------------|
|----------5-----5-------|-5-----------6----5----|
|----5--------------5----|-4---------------------|
|-9-----9--------------7-|-6-----------3----2----|
|------------------------|-6---------------------|
|------------------------|-4---------------------|
|
| PM-------| ~ PM---|
| E E E E E E Q Q E S S Q Q
|------------------------|-----------------------|
|-0--





Ваше мнение



Капча