#----------------------------------PLEASE NOTE---------------------------------#
#This file is the author's own work and represents their interpretation of the #
#song. You may only use this file for private study, scholarship, or research. #
#------------------------------------------------------------------------------##
That's What I Call Love
(P. Hester/N. Finn)
NOTE:
-- The tablature that appears on the second line of the Intro is
the same style as used on the verses.
INTRO:
________________ ____________
|1. |2.
------------|--------------|----------------||-7--7--10--||
------------|--------------|-7-7-8----7-7-8-||-8--8---8--||
7--7-7--7-7-|-7---7-7--7-7-|-7-7-7----7-7-7-||-----------||
5--5-5--5-5-|-5---5-5--5-5-|-7-7-7----7-7-7-||-----------||
------------|--------------|----------------||-----------||
------------|--------------|----------------||-----------||
------------------------------------------------------|
------------------------------------------------------|
7--7-7--7-7-|-7--7-7--7-7-|----7----7---|-6--6-6------|
5--5-5--5-5-|-5--5-5--5-5-|----5----5---|-5--5-5------|
--------------------------|-7----7----7-|-7--7-7------|
------------------------------------------------------|
Emaj7*
You take away my air
E7*
You make my lungs collapse
I die tonight
I die tonight
C7* B7*
Feeling devastated
Em
That's what I call
C7 B7
Livin' in your memory
Em
That's what I call
C7 B7
Tired and deflated
Em
That's what I call
E7 B7 Em
Love
I tidy up your room
You tidy up my life
Show me the door
I'm abandoned here
I'm warm to the core
I can feel
You sink I swim
We never got in that deep
You bend I break
I die tonight
Feeling devastated
That's what I call
Hangin' on and fallin' over
That's what I call
Tired and deflated
That's what I call
Love
-----------|------------|------------|------------||
---8---8---|----8---8---|----8---8---|----8---8---||
7----7---7-|-7----7---7-|-7----7---7-|-6----6---6-|| Repeat
9----9-----|-9----9-----|-9----9-----|-7----7---7-||
-----------|------------|------------|------------||
-----------|------------|------------|------------||
______________ ______________
|1. |2. [Chords]
-------------|-------------|-------------|-------------||
-3--3-3--3-3-|-3--3-3--3-3-|-3--3-3--3-3-|-2--2-2--2-2-||
-0--0-0--2-4-|-0--0-0--2-4-|-0--0-0--2-4-|-0--0-0--2-4-|| C B
-------------|-------------|-------------|-------------||
-------------|-------------|-------------|-------------||
-------------|-------------|-------------|-------------||
Em F#m G F#m Em
Emaj7 E7
I got a little room
The air's still pretty bad
I die tonight
Feeling devastated
That's what I call
Hangin' on and fallin' over
That's what I call
Tired and deflated
That's what I call
Feeling devastated (That's)
Livin' with a vacuum cleaner (What)
C7 B7
Sweepin' up your memory (I)
Em F#m G F#m Em
call Love
* UNUSUAL CHORDS
Emaj7 X757XX
E7 X756XX
C7 8(10)8988
B7 797877
(Transcription by Marck Bailey)




Ваше мнение



Капча