Something So Strong
(N. Finn/M. Froom)
INTRO:
-2-2--2--2-2----------
-3-3--3--3-3----------
-2-2--2--2-2----------
-0-0--0--0-0-----0----
-------------0-2---2--
----------------------
(D)
D
Love can make you weep
Em D
Can make you run for cover
Bm
Roots that spread so deep
G D
Bring life to frozen ground
CHORUS
G D
Something so strong
G B A
Could carry us away
G D
Something so strong
G A
Could carry us today
Turning in my sleep
Love can leave you cold
Taste of jealousy
Is like a lust for gold
Chorus
G* D/F# D D/C#
I've been feeling so much older
G D/F# A
Frame me and hang me on the wall
G D/F# D D/C#
I've seen you fall into the same trap
G D/F# A
This thing is happening to us all
SOLO: (Chords underneath solo are from verse)
-----------------|--------------------------|---------------------------|
-------------3---|--------0-------3-----3---|---3--7-5-3-----3--7-5-3---|
-------4---------|---0------------2---0---0-|------------0------7-6-4-0-|
0-4--7---4-------|-----0----0>2-5-----------|-4------------4------------|
---------------0-|-2------------------------|---------------------------|
-----------------|--------------------------|---------------------------|
------------------6---9-9-9-8-|-7--7-||
8-8-8-7-8-7-8-7-7-----7-7-7-7-|-8--8-||
9-9-9-7-9-7-9-7-----6---------|------||
------------------------------|------||
------------------------------|------||
------------------------------|------||
Chorus
Chords to fade: G D G D .... etc.

(Transcription by Marck Bailey and Mark Schnitzius)




Ваше мнение



Капча