Sister Madly
(N. Finn)
NOTES:
-- to play this the way it was originally played, all chords on the
Verses are bar chords: Em on the 7th fret, A on the 5th fret, and
C on the 8th fret.
-- in the tab of the Richard Thompson solo, the notation "11^" means to
Play the 11th fret but bend the note up (not necessarily all the way up
To the tone of the 12th fret--just a quick, ornamental bend. you know,
Thompson is famous for this kind of thing.)
INTRO: Em A Em C
Em A
Now you're heading down to get someone
Em C
Should've done what he had to do years ago
Em A
The position is coming through
Em C
All the people that you're standing on
Em A
All the people that you're standing on
Em C
Now you're heading down to be someone
Em A
Someone that you've seen in a magazine
Em C
Your premonition is coming true
Em A
Oh baby you're not so green
Em C
No baby you're not so green
Em A
No baby you're nutso
Am D G D
Sister madly waking up the dead
Am D G D
You're systematically stepping on my head
Am D G D
Sister madly waking up the dead
Am B7 E
You're systematically stepping on my head
Now you're heading down to find something
Something that you buried in your back yard
The position is coming through
From all the dirt that you're digging up
From all the dirt that you're digging up
Now you're heading down to be somewhere
Somewhere you imagined in your wildest dream
The opposition is coming through
From all the people that you're standing on
From all the people that you're standing on
Now you better you'd better take a firm hand
Sister madly waking up the dead
You're systematically stepping on my head
Sister madly waking up the dead
You're systematically stepping on my head
SOLO:
-0---0---0-|-2-3-2-3-2-3---7--7--7-|----------------------|
-5---0---5-|-4-4-4-4-4-4---8--8--8-|-7----7---------------|
-----------|---------------9--9--9-|----9---9-------------|
-----------|-----------------------|----------9--7-5----4-|
-----------|-----------------------|-----------------7----|
-----------|-----------------------|----------------------|
^^^^^^^^^^^^^^^^^^^^^^^^
-----------------------|---7----11^----12----13-----13^-----13^14-|
-----7--7--5-7-8>7>5-7-|-5----9------9-----9-----11------12-------|
---4-------------------|------------------------------------------|
-5---------------------|------------------------------------------|
-----------------------|------------------------------------------|
-----------------------|------------------------------------------|
Now you're heading down to get someone
14---------------12----------8---------7-|
12---------------12----------8---------8-|
-----------------------------------------| 4>2--------|
--------------2--0-2-| F9*
---------------------|
---------------------|
* UNUSUAL CHORD
F9 XX988(11)
(Transcription by Marck Bailey)




Ваше мнение



Капча