Never Be the Same
(N. Finn)
INTRO: C G C G C G C F Am G
D2* Dm* Am* G D2 Dm Am G
Don't stand around like friends at a funeral
D2 Dm Am G
Eyes to the ground
Am Am/G*
It could have been you
D2 Dm Am G
Why do you weep
D2 Dm Am G
For the passing of ages
D2 Dm Am
You slip with the back of your hand
G
You're taking it out on the one you love
D2 Dm A G
I couldn't believe it
F C
But we might still survive
G Am Am/G#* Am/G
And rise up through the maze
F C
If you could change your life
G Am
And never be the same
--------------------------|---------------||
-5--5--6--6--8--8--10--10-|-5--5--6--6--8-||
--------------------------|---------------||
--------------------------|---------------||
--------------------------|---------------||
--------------------------|---------------||
How long must I wait
For you to release me
I pay for each mistake
While you suffer in silence
I could still have an easy life
But the life ain't worth living
C D
Once more will i hear you say
We might still survive
And rise up through the maze
If you could change your life
G F Am F D
And never be the same
[Instr. break on G]
D2 G
Don't stand around
D2 G
Like friends at a funeral
D2 Dm Am G
Eyes to the ground
Am Am/G
Don't suffer in silence
F C
'cause we might still survive
G Am
And rise up through the maze
F C
If you could change your life
G Am
And never be the same
F C
Everytime I hear you
G Am
Never be the same
F C
And everytime I mess up
G
Never be the same
Chords under guitar solo (to end of song):
F C G D F C G [>>>>10-----10----10--------------------|
-------------------|-3>>>>>12--12----12-----------------------|
-------------------|-----------------------12--10---------10--|
-------------------|-------------------------------10-12------|
-------------------|------------------------------------------|
-3--(7)--(7)--(7)--|------------------------------------------|
^^^^^^^^^^^^^^^^
--------|----------------------|---------------------------------|
--------|----------------------|---------------------------------|
------4-|--(5)^4---(5)^4--2-0--|----(5)^4-------(5)^4------(5)^4-| G chord
-3-5----|----------------------|---------------------------------|
--------|----------------------|---------------------------------|
--------|----------------------|-3-------------------------------|
^^^^^^^^^^^^^^^^^^^^^^^^^^^^^^^^

* UNUSUAL CHORDS
D2 X57755
Dm X57765
Am 577555
Am/G 302210
(Transcription by Marck Bailey)




Ваше мнение



Капча