#----------------------------------PLEASE NOTE---------------------------------#
#This file is the author's own work and represents their interpretation of the #
#song. You may only use this file for private study, scholarship, or research. #
#------------------------------------------------------------------------------##
{title:Fame Is}
{subtitle:N. Finn}
INTRO CHORD: Esus4*
B* Bb9*
Fork lightning in your hall
Ab* G9*
Break the skin when you break the fall
G D E
I'll be the one to fix it up
B Bb9
Love children of the new age
Ab G9
Just a hippy with a weekly wage
G D G A
There's no rebellion just a chance to be lazy
Em G A Em
When fame is in your blood
G A Em
You follow the science of love
G A Em
Wave the magic wand
F#
And hang on
The rest of us are living in a daze
Keep thinkin' 'bout the choice to be made
Here come the handmaidens of end time
Lost treasure from a primitive race
All the lives written on your face
can't fill the canyons of your mind
Em G A Em
When fame is in your blood
G A Em
You follow the science of love
G A Em
Wave the magic wand
G F#
And hang on
G F#
GUITAR (underneath organ, second 1/2 of instrumental break)
----------------------||
-0--2--3--5--7--8--11-||
-0--2--4--6--7--9--11-||
----------------------||
----------------------||
----------------------||
Bm Em
Now you've changed and jumbled the pieces
Bm Em
You've changed but you were better off before
Bm Em
You talked to a roomful of strangers
GUITAR SOLO (over B - Bb9 - Ab - G9)
----7-----7-----7-----7--7>6-|------------------------3-||
-0-----0-----0----0----------|-9--9--9--------4--1>0----||
-----------------------------|-8--8--8---4>5------------||
-----------------------------|--------------------------||
-----------------------------|--------------------------||
-----------------------------|--------------------------||
G D G A
Here come the handmaidens of end time
Em G A Em
When fame is in your blood
G A Em
You follow the science of love
G A Em
Wave the magic wand
G A Em
And all of your spells will break
G A Em
And all of your stars will fall
G A G A Em
So look out for number one
G A Em
Fame is in your blood
G A Em
* UNUSUAL CHORDS
Esus4 x779(10)7
B 799xxx
Bb9 687xxx
Ab 466xxx
G9 354xxx
Em7/B x20000
A/C# x42220




Ваше мнение



Капча