Title: Up Around The Bend
By: Creedence Clearwater Revival
Tabbed/chorded by: GWiZ ([email protected])
-----
Correct CCR-chords/tab
In the intro, just think the chord: x-x-0-10-10-11 and do the two
10's with the index finger. (and the two 5's later)
intro
E---------------10-------------------------------10----------------|
B--------------------10------10----------------------10--------10--|
G-------9/11------------11--------------9/11-------------11--------|
D---0---------------------------------0----------------------------|
A------------------------------------------------------------------|
E------------------------------------------------------------------|
E------------------5-----------------------------10----------------|
B---------------------5--------5----------------------10--------10-|
G-----------4/6----------6---------------9/11-------------11-------|
D------------------------------------0-----------------------------|
A-----0------------------------------------------------------------|
E------------------------------------------------------------------|
[D]There's a place up ahead and I'm goin'
[A]just as fast as my feet can [D]fly.
[D]Come away, come away if you're goin',
[A]leave the sinkin' [A7]ship be[D]hind.
[G]C'mon the [D]risin' [A7]wind,
we're [G]goin' up a[D]round the [A]bend. Wh[A7]oooh.
[D]Bring a song and a smile for the banjo,
[A]better get while the gettin's [D]good.
[D]Hitch a ride to the end of the highway
[A]where the neons [A7]turn to [D]wood.
[G]C'mon the [D]risin' [A7]wind,
we're [G]goin' up a[D]round the [A]bend.
[D]You can ponder perpetual motion,
[A]fiz your mind for a crystal [D]day.
[D]Always time for a good conversation,
[A]there's an ear for [A7]what you [D]say.
[G]C'mon the [D]risin' [A7]wind,
we're [G]goin' up a[D]round the [A]bend.
[D]Catch a ride to the end of the highway
[A]and we'll meet by the big red [D]tree.
[D]There's a place up ahead and I'm goin',
[A]come along, come [A7]along with [D]me.
[G]C'mon the [D]risin' [A7]wind,
we're [G]goin' up a[D]round the [A]bend.
------------
Transposed so it's actually possible to sing without hitting
yourself in the balls first ;-)
(and still possible to make the sweet intro fit):
intro
E------------5----------------------------5--------------------|
B-----------------5-------5---------------------5--------5-----|
G-------4/6-----------6--------------4/6------------6----------|
D--------------------------------------------------------------|
A---0----------------------------0-----------------------------|
E--------------------------------------------------------------|
E------------0----------------------------5--------------------|
B-----------------0-------0---------------------5--------5-----|
G-------0/1-----------1--------------4/6------------6----------|
D--------------------------------------------------------------|
A--------------------------------0-----------------------------|
E---0----------------------------------------------------------|
[A]There's a place up ahead and I'm goin'
[E]just as fast as my feet can [A]fly.
[A]Come away, come away if you're goin',
[E]leave the sinkin' [E7]ship be[A]hind.
[D]C'mon the [A]risin' [E7]wind,
we're [D]goin' up a[A]round the [E]bend. Wh[E7]oooh.
[A]Bring a song and a smile for the banjo,
[E]better get while the gettin's [A]good.
[A]Hitch a ride to the end of the highway
[E]where the neons [E7]turn to [A]wood.
[D]C'mon the [A]risin' [E7]wind,
we're [D]goin' up a[A]round the [E]bend.
[A]You can ponder perpetual motion,
[E]fiz your mind for a crystal [A]day.
[A]Always time for a good conversation,
[E]there's an ear for [E7]what you [A]say.
[D]C'mon the [A]risin' [E7]wind,
we're [D]goin' up a[A]round the [E]bend.
[A]Catch a ride to the end of the highway
[E]and we'll meet by the big red [A]tree.
[A]There's a place up ahead and I'm goin',
[E]come along, come [E7]along with [A]me.
[D]C'mon the [A]risin' [E7]wind,
we're [D]goin' up a[A]round the [E]bend.




Ваше мнение



Капча