#----------------------------------PLEASE NOTE---------------------------------#
#This file is the author's own work and represents their interpretation of the #
#song. You may only use this file for private study, scholarship, or research. #
#------------------------------------------------------------------------------##
From: [email protected]
Date: Wed, April 24, 1996 9:30
Subject: BTAB: Traveling Band by Credence Clearwater Revival

Traveling Band
Credence Clearwater Revival
>From [email protected]

This is my first bass tab, so please bear with me. It probably isn't exact,
but it's as close as I can figure. Please e-mail me and let me know
any changes that are necessary.

Aeroplane
Intro
C# B F#
g-------------|-------------|-------------|
d----3--6--3--|----1--4--1--|-------------|
a-4-----------|-2-----------|----1--4--1--|
e-------------|-------------|-2-----------|

Verse Intro
F# F# F#
g-------------|-------------|-------------|
d-------------|-------------|-------------|
a-------------|-------------|-------------|
e-2-----------|-2--------2--|-2---2--22222|

Verse
B B F# F# C#
g-------------|-------------|-------------|-------------|-------------
d----1--4--1--|----1--4--1--|-------------|-------------|----3--6--3--
a-2-----------|-2-----------|----1--4--1--|----1--4--1--|-4-----------
e-------------|-------------|-2-----------|-2-----------|-------------

B C# F#
g-------------|-------------|-------------|
d----1--4--1--|----3--6--3--|-------------|
a-2-----------|-4-----------|----1--4--1--|
e-------------|-------------|-2-----------|

Next, repeat in entirety 3 times.
(that includes both Verse Intro and Verse, not the Intro!)




Ваше мнение



Капча