Creedence Clearwater Revival
Tombstone Shadow Intro
By Igor Pnkiewicz
Drake..[email protected]
E-----------------------------------------------------
B----------15b17-15b17-------------15-14-13-----------
G------12------------------15-12-------------15-12----
D-13/14--14----------------------------------------14-
A-----------------------------------------------------
E-----------------------------------------------------
E-----------------------------------------------------
B-----------------------------------------------------
G-14b15r14--12---14b15r14--12---14b15r14--12----------
D-----------------------------------------------------
A-----------------------------------------------------
E-----------------------------------------------------
Send me an e-mail if you wanna post it in your website
Or if you have any corrections, other creedence tabs and
The other licks from this music.
Please donґt change the tab without my permission (unless it's for personal use) :¬)
Later dude...




Ваше мнение



Капча