Sweet Hitch-Hiker
By Creedence Clearwater Revival
Tabbed by: Alejandro Grepet
The song itґs simple... but really cool! Enjoy!!!

Here are the riffs
Riff 1 riff 2
E------------------------ E------------------------
B------------------------ B--------13-15~~---------
G-14~-12-11-12-14-------- G--12-14-----------------
D------------------------ D------------------------
A------------------------ A------------------------
E------------------------ E------------------------
And the song
D5 G5
Was ridin' along side the highway, rollin' up the country side.
D5 G5
Thinkin' I'm the devil's heatwave, what you burn in your crazy mind?
D5 C5 G5
Saw a slight distraction standin' by the road;
C5 A5
She was smilin' there, yellow in her hair;
D5
Do you wanna, I was thinkin', would you care.
Chorus:
A5 Riff1
Sweet Hitch-a-Hiker,
G5 D5 Riff2
We could make music at the Greasy King.
A5 Riff1
Sweet Hitch-a-Hiker,
G5 Riff2
Won't you ride on my fast machine?
D5 G5
Cruisin' on thru the junction, I'm flyin' 'bout the speed of sound,
D5 G5
Noticin' peculiar function, I ain't no roller coaster show me down.
D5 C5 G5
I turned away to see her, Woah! she caught my eye,
C5 A5
But I was rollin' down, movin' too fast;
D5
Do you wanna, She was thinkin' can it last.
Chorus
Solo during D C G C A D
The solo is simple too, but itґs played fast.
E--------------------------------------------------------------------
B--15-15-15-15-15-15-15-15-15-15-15-15-15-15-15-15-------13-------13-
G--------------------------------------------------12h14----12h14----
D--------------------------------------------------------------------
A--------------------------------------------------------------------
E--------------------------------------------------------------------
E--------------------------------------------------------------------
B-------13-------13-------13-------13-------13-------13-15~~~--------
G-12h14----12h14----12h14----12h14----12h14----12h14-----------------
D--------------------------------------------------------------------
A--------------------------------------------------------------------
E--------------------------------------------------------------------
D5 G5
Was busted up along the highway, I'm the saddest ridin' fool alive.
D5 G5
Wond'ring if you're goin' in my way, won't you give a poor boy a ride?
D5 C5 G5
Here she comes a ridin', Lord, she's flyin' high.
C5 A5
But she was rollin' down, movin' too fast;
D5
Do you wanna, She was thinkin' can I last.
Chorus and fade

Comments or corrections... send me an e-mail to [email protected]




Ваше мнение



Капча