Standard Tuning
Listen to the song for the timing
Pretty much this through the whole song ‘cept the solos

|-------------------------------------------------------|
|--------3----------------------------------------------|
|-------------2----0------------------------------------|
|----------------------0---2-----2--------------0-------|
|--------------------------------------0---2------------|
|---0----0----0------------0-----0---------0--------3b--|

There are some dumb chords and cooler solos in between but i can't figure em out

|---0--3-------------------------------|
|---------------3----------------------|
|----------3/4-----4---2--0------------| 4x
|-------------------------------0---2--|
|--------------------------------------|
|--------------------------------------|

|0--5///---0--3--0-----0---------------|
|-------------------5-----3------------|
|------------------------------3--4----| 4x
|--------------------------------------|
|--------------------------------------|
|--------------------------------------|




Ваше мнение



Капча