E: Mon, 02 Feb 1998 23:48:10 +0100
From: Roger Olofsson
Subject: TAB: I put a spell on you by Creedence Clearwater Revival (fwd)

Song:I put a spell on you
Artist: Creedende Clearwater Revival (song written by Jay Hawkins)
CD: Chronicle
Tabber:Roger Olofsson ([email protected])

Intro:

Notice: Fogerty plays chords in open position and the rhythm guitar plays
The barre ones. I have tabbed it the other way around, ie the lead guitar
Plays the barre ones below.

Strum
E----------------7~------------------|-------------7~--------------------|
B----------------8~------------------|-------------8~--------------------|
G----------------9~------------------|-------------9~--------------------|
D----------------9~------------------|-------------9~--------------------|
A--2-------------7~------------------|-2-----------7~--------------------|
E----3-2-0--3------------------------|---3-2-0--3------------------------|

(staccato chords downstrum with a steady beat for the rhythm guitar)
(Lead guitar strums chords slowly inbetween lyrics and plays like below)
Em
I put a spell on you

(When going from Em to Am play this)
E---7----------5~--------------------|-----------------------------------|
B---8----------5~--------------------|-----------------------------------|
G---9----------7~--------------------|-----------------------------------|
D---9----------7~--------------------|-----------------------------------|
A---7---7--10--5~--------------------|-----------------------------------|
E------------------------------------|-----------------------------------|

Am Em
Because you're mine.

(After mine play the following)
E--7-------------7-------------------|-----------------------------------|
B--8-------------8-------------------|-----------------------------------|
G--9-------------9-------------------|-----------------------------------|
D--9---9--9---9--9-------------------|-----------------------------------|
A--7--10--7--10--7-------------------|-----------------------------------|
E------------------------------------|-----------------------------------|
Am
You better stop the things that you're doin'.
(Right after doin' comes..)
E------------5~----------------------|-----------------------------------|
B------------5~----------------------|-----------------------------------|
G------------5~----------------------|-----------------------------------|
D------------7~----------------------|-----------------------------------|
A----7---7---7~----------------------|-----------------------------------|
E----5---9---5~----------------------|-----------------------------------|

Am
I said "Watch out!
B7
I ain't lyin', yeah!
Em
I ain't gonna take none of your
(after your)
E------------------------------------|-----------------------------------|
B------------------------------------|-----------------------------------|
G------------------------------------|-----------------------------------|
D---9---9--9-------------------------|-----------------------------------|
A---7--10--7-------------------------|-----------------------------------|
E------------------------------------|-----------------------------------|

Em
Foolin' around;

(after around)
E---7----------5~--------------------|-----------------------------------|
B---8----------5~--------------------|-----------------------------------|
G---9----------7~--------------------|-----------------------------------|
D---9----------7~--------------------|-----------------------------------|
A---7---7--10--5~--------------------|-----------------------------------|
E------------------------------------|-----------------------------------|

Am
I ain't gonna take none of your
B7
Puttin' me down;
Em
I put a spell on you
E---7----------7~--------------------|-----------------------------------|
B---8---------10~--------------------|-----------------------------------|
G---9----------8~--------------------|-----------------------------------|
D---9----------9~--------------------|-----------------------------------|
A---7---7--10--9~--------------------|-----------------------------------|
E--------------7~--------------------|-----------------------------------|
Em Am B7
Because you're mine. All right!

Here goes the solo:
E------------------------------------|-----------------------------------|
B------------------------------------|-----------------------------------|
G--------------9b11-9b11-9b11-9b11-9b11-9b11-9b11r9r7-9b11r9r7--9b11r9---|
D-------------------------------------|--------------8--------8---slow---|
A----------5/7-----------------------|-----------------------------------|
E--0-3-5-7---------------------------|-----------------------------------|

E------------------------------------|--------------------------12-------|
B------------------------------------|-----------------------------------|
G-------12-12-12-12b13-12b13-12b13-12b14----------12-14-14-14b15---14b15-|
D-8-8/14-----------------------------|--14-12-14-14----------------------|
A------------------------------------|-----------------------------------|
E------------------------------------|-----------------------------------|

E------------------------------------|-------------------12--------------|
B------------------------------------|-----------------------------------|
G--14b15-15r14r12---12-14-12----12-14|-14b15-14b15-14b15---14b15-slow----|
D----------------14----------14------|-----------------------------------|
A------------------------------------|-----------------------------------|
E------------------------------------|-----------------------------------|

E------------------------------------|-----------------------------------|
B------------------------------------------------12-12-----12-12---------|
G--15r14r12---12-14-12-12h14r12-14b15r14-12-14b15-----14b15------14b15---|
D----------14------------------------|-----------------------------------|




Ваше мнение



Капча