I Heard It Through the Grapevine - Creedence Clearwater Revival
INTRO:
(x3)
G|-----------|-------------------|-----------------|
D|-----------|*-----------------*|-----------------|
A|-r-r-r-0-2-|*-5-5-5-5-5-5-5-5-*|-5-5-5-5-5-5-0-2-|
E|-----------|-------------------|-----------------|
1 2 3 4 & 1 & 2 & 3 & 4 & 1 & 2 & 3 & 4 &
VERSE:
|-------------|---------------|-------------|-------------|
|-------------|---------------|-------------|-------------|
|-5---5-5---5-|-5---5-5-8---5-|-------------|-------------|
|-------------|---------------|-5---5-5-4-3-|-3-3-3-3-3-3-|
1 2 & 3 4 & 1 2 & 3 & 4 & 1 2 & 3 & 4 1 2 3 & 4 &
|-------------|-------------|-------------|-----------|
|-------------|---------5-6-|-7---7-7-6-5-|---5-5-----|
|-5---5-5---5-|-5---5-5-----|-------------|-----------|
|-------------|-------------|-------------|-----------|
1 2 & 3 4 & 1 2 & 3 4 & 1 2 & 3 4 & 1 & 2 3 4
|---------------|---------------|-------------|---------------|
|---------------|---5-----------|-------------|---------------|
|-2---2-2-5-----|-----2-3-3-4-4-|-5---5-5-----|-----2-3-3-4-4-|
|-------------3-|---------------|-----------5-|-3-3-----------|
1 2 & 3 & 4 & 1 & 2 3 & 4 & 1 2 & 3 4 & 1 & 2 3 & 4 &
CHORUS:
all except
|-----------|-------------|---------------|---------------|
|-----3/5---|-------------|---------------|---------------|
|-5-------5-|---5-5---5/8-|---------------|---------------|
|-----------|-------------|-3---3-3-3---3-|-3-3---3-3-3-3-|
1 2 & 3 4 1 & 2 3 & 4 1 2 & 3 & 4 & 1 & 2 & 3 & 4
last
|---------------|
|---------------|
|---------0-2-3-|
|-3-3-----------|
1 & 2 3 & 4 &
By: Johari Taylor
E-mail: [email protected]




Ваше мнение



Капча