E: Mon, 02 Feb 1998 23:47:53 +0100
Original tabber: Matt Crowe
Additions From: Roger Olofsson
Subject: TAB: Green River by Creedence Clearwater Revival (fwd)
Song: Green River
Artist: Creedence Clearwater Revival
CD: Chronicle
Additional Tabbing:Roger Olofsson ([email protected])
E:------------------------|---------------------------|-----------------
B:------/3--3--3--3-------|--/3--3--3--3--------------|-----------------
G:------/4--4--4--4-------|--/4--4--4--4--0h2---0-----|-----------------
D:------------------------|--------------------------0h2--2-----0-------
A:------------------------|---------------------------|-----0h2---------
E:-0----------------------|---------------------------|-----------------
E E E
Rhy. Fig. 1
E:------------------------|---------------------------|-
B:------------------------|-----/3--3--3--3-----------|-
G:------------------------|-----/4--4--4--4-----------|-
D:--2-2--------0-----2----|---------------------------|-
A:--------0h2-------------|---------------------------|-
E:------------------------|---------------------------|-
E E E
(End Rhy Fig. 1)
E:------------------------|---------------------------|------------------
B:--/3--3--3--3-----------|---------------------------|------------------
G:--/4--4--4--4--0h2--0---|---------------------------|------------------
D:----------------------0h2-2-----0--2-2-----0--2-----|------------------
A:------------------------|---0h2--------0h2----------|------------------
E:------------------------|---------------------------|------------------
Well.............
(W/ Rhy Fig. 1: 2 1/2 times)
E
E:-------------------------------------------0-------------------
B:-----------------------------------------------/3-3-3-3--------
G:----------------------------------------3b4----/4-4-4-4--------
D:--------------------------------------2------2-----------------
A:---------------------------------------------------------------
E:---------------------------------------------------------------
Take me back down where cool water flows ya'll
E:-----------------|----------------------------------------------
B:-----/3-3-3--3---|----------------------------------------------
G:-----/4-4-4--4--2--0--------------------------------------------
D:-----------------|----------------------------------------------
A:-----------------|----------------------------------------------
E:-----------------|----------------------------------------------
E:---------------------------------------0-----------------------
B:------------------------------------------/3-3-3-3-------------
G:------------------------------------3b4---/4-4-4-4-------------
D:-----------------------------------2----2----------------------
A:---------------------------------------------------------------
E:---------------------------------------------------------------
Ah, let me remember things I love, now.
E:-----------------|----------------------------------------------
B:--/3--3--3--3----|----------------------------------------------
G:--/4--4--4--4--2--0---------------------------------------------
D:-----------------|----------------------------------------------
A:-----------------|----------------------------------------------
E:-----------------|----------------------------------------------
E:-----------------------------------------0--0------------------
B:-----------------------------------------3--3------------------
G:-----------------------------------------1--1------------------
D:-----------------------------------------2--2------------------
A:-----------------------------------------2--2------------------
E:-----------------------------------------0--0------------------
Stoppin' at the log where cat fish bite.
C (Rhy. Fig. 2)
Walkin' along the river road at night,
E:-------0---------------0-0------0-----5--5/--------------------
B:-------1---------------3-1------1-----5--5/--------------------
G:-------0---------------0-0------0-----5--5/--------------------
D:-----------------------2-2------------7--7/--------------------
A:--3--------------------3-3---3--------7--7/-down---------------
E:--------------------------------------5--5/--------------------
A
Barefoot girl dancin' in the moonlight
E:---------------------------------------------------------------
B:-------2------2----2----2--------------------------------------
G:-------2--2---2----2----2--------------------------------------
D:---------------------------------------------------------------
A:--0-------------------------0--0--1--2-------------------------
E:---------------------------------------------------------------
E (End Rhy. Fig. 2)
E:----------0---------------------------0------------------------
B:------/3--3--3--3------/3--3--3--3----5------------------------
G:------/4--4--4--4------/4--4--4--4----4------------------------
D:---------------------------------------------------------------
A:---------------------------------------------------------------
E:--0------------------------------------------------------------
2nd Verse: w/ Rhy. Fig. 1 (2 1/2 times)

E
I can hear the bull-frog callin' me, how!
E------------------------------------|-0-----------------------0---------|
B------------------------------------|----/3-3-3-3---/3-3-2--------------|
G----------------------------------3b4----/4-4-4-4---/4-4---0h1----------|
D--------------------------------2---|--2-------------------------0h2r02-|
A------------------------------------|-----------------------------------|
E------------------------------------|-----------------------------------|
E
Wondrin' if my rope's still hangin to the tree.
E------------------------------------|-0-----------------------0---------|
B------------------------------------|----/3-3-3-3---/3-3-2--------------|
G----------------------------------3b4----/4-4-4-4---/4-4---0h1----------|
D--------------------------------2---|--2--------------------------------|
A------------------------------------|-----------------------------------|
E------------------------------------|-----------------------------------|
E
Love to kick my feet way down to shallow water, ah
C (w/ Rhy. Fig. 2) A
Shoe-fly, dragonfly get back to mother. Pick up a flat rock
A E
Skip it 'cross Green a-River.
E:---------------------------------------------------------------
B:---------------------------------------------------------------
G:---------------------------------------------------------------
D:---------------------------------------------------------------
A:-------------------------------0--1--2-------------------------
E:---------------------------------------------------------------
E (End Rhy. Fig. 2)
E:----------0---------------------------0------------------------
B:------/3--3--3--3------/3--3--3--3----5------------------------
G:------/4--4--4--4------/4--4--4--4----4------------------------
D:---------------------------------------------------------------
A:---------------------------------------------------------------
E:--0------------------------------------------------------------
Solo commences:
Well.... 2nd guitar plays
E--0--------0------------------------|---------10-11-12b-------------------|
B--5b--------3-0---------------------|-------------------------------------|
G---------------2-0----3b3-2-0-------|-------------------------------------|
D------------------2----------2-0-2--2b3-2b3-2b3-2b3-0---3b4-3b4-2-0-------|
A------------------------------------|-------------------------------2-0-2-|
E------------------------------------|-------------------------------------|
2nd guitar plays
E---------10-11-12b-----------------10b11---12----------0------------0---|
B------------------------------------|-----------/3-3-3-3--/3-3-3-3--5---|
G-------0---2b3-2-0---------------2-0--2b3r2-0---/4-4-4-4--/4-4-4-4--4---|
D---0h2--0h2-------2----0h2-0h2-2-2-2--2-------2-------------------------|
A-3-------------------0--------------|-----------------------------------|
E------------------------------------|-----------------------------------|
3rd Verse: w/ Rhy. Fig. 2 (2 1/2 times)
E
Up to Cody's camp I spent my days -- ya'll
E-----------------------------------0-------7-7-7-7--0--0----------------|
B--------------------------------/3-3-------8-8-8-8--0--0--2-----0-------|
G--------------------------------/4--------------------------0h1---------|
D-------------------------------------2----------------------------------|
A------------------------------------|-----------------------------------|
E------------------------------------|-----------------------------------|




Ваше мнение



Капча